  0
SECTION
  2
HEADER
  9
$ACADVER
  1
AC1009
  9
$INSBASE
 10
0.0
 20
0.0
 30
0.0
  9
$EXTMIN
 10
447.915602
 20
290.841433
 30
-903.904653
  9
$EXTMAX
 10
817.311873
 20
665.539568
 30
123.559687
  9
$LIMMIN
 10
0.0
 20
0.0
  9
$LIMMAX
 10
1000.0
 20
1000.0
  9
$ORTHOMODE
 70
     0
  9
$REGENMODE
 70
     1
  9
$FILLMODE
 70
     1
  9
$QTEXTMODE
 70
     0
  9
$MIRRTEXT
 70
     1
  9
$DRAGMODE
 70
     2
  9
$LTSCALE
 40
1.0
  9
$OSMODE
 70
    41
  9
$ATTMODE
 70
     1
  9
$TEXTSIZE
 40
2.5
  9
$TRACEWID
 40
1.0
  9
$TEXTSTYLE
  7
STANDARD
  9
$CLAYER
  8
0
  9
$CELTYPE
  6
BYLAYER
  9
$CECOLOR
 62
   256
  9
$DIMSCALE
 40
1.0
  9
$DIMASZ
 40
2.5
  9
$DIMEXO
 40
0.625
  9
$DIMDLI
 40
3.75
  9
$DIMRND
 40
0.0
  9
$DIMDLE
 40
0.0
  9
$DIMEXE
 40
1.25
  9
$DIMTP
 40
0.0
  9
$DIMTM
 40
0.0
  9
$DIMTXT
 40
2.5
  9
$DIMCEN
 40
2.5
  9
$DIMTSZ
 40
0.0
  9
$DIMTOL
 70
     0
  9
$DIMLIM
 70
     0
  9
$DIMTIH
 70
     1
  9
$DIMTOH
 70
     0
  9
$DIMSE1
 70
     0
  9
$DIMSE2
 70
     0
  9
$DIMTAD
 70
     1
  9
$DIMZIN
 70
     8
  9
$DIMBLK
  1

  9
$DIMASO
 70
     1
  9
$DIMSHO
 70
     1
  9
$DIMPOST
  1

  9
$DIMAPOST
  1

  9
$DIMALT
 70
     0
  9
$DIMALTD
 70
     2
  9
$DIMALTF
 40
0.0394
  9
$DIMLFAC
 40
1.0
  9
$DIMTOFL
 70
     1
  9
$DIMTVP
 40
1.0
  9
$DIMTIX
 70
     0
  9
$DIMSOXD
 70
     0
  9
$DIMSAH
 70
     0
  9
$DIMBLK1
  1

  9
$DIMBLK2
  1

  9
$DIMSTYLE
  2
ISO-25
  9
$DIMCLRD
 70
     0
  9
$DIMCLRE
 70
     0
  9
$DIMCLRT
 70
     0
  9
$DIMTFAC
 40
1.0
  9
$DIMGAP
 40
0.625
  9
$LUNITS
 70
     2
  9
$LUPREC
 70
     0
  9
$AXISMODE
 70
     0
  9
$AXISUNIT
 10
0.0
 20
0.0
  9
$SKETCHINC
 40
1.0
  9
$FILLETRAD
 40
3.0
  9
$AUNITS
 70
     0
  9
$AUPREC
 70
     0
  9
$MENU
  1
acad
  9
$ELEVATION
 40
0.0
  9
$PELEVATION
 40
0.0
  9
$THICKNESS
 40
0.0
  9
$LIMCHECK
 70
     0
  9
$BLIPMODE
 70
     1
  9
$CHAMFERA
 40
10.0
  9
$CHAMFERB
 40
10.0
  9
$SKPOLY
 70
     0
  9
$TDCREATE
 40
2451198.715509375
  9
$TDUPDATE
 40
2451280.975254630
  9
$TDINDWG
 40
0.0573018287
  9
$TDUSRTIMER
 40
0.0573018287
  9
$USRTIMER
 70
     1
  9
$ANGBASE
 50
0.0
  9
$ANGDIR
 70
     0
  9
$PDMODE
 70
     0
  9
$PDSIZE
 40
0.0
  9
$PLINEWID
 40
0.0
  9
$COORDS
 70
     1
  9
$SPLFRAME
 70
     0
  9
$SPLINETYPE
 70
     6
  9
$SPLINESEGS
 70
     8
  9
$ATTDIA
 70
     0
  9
$ATTREQ
 70
     1
  9
$HANDLING
 70
     1
  9
$HANDSEED
  5
ECE
  9
$SURFTAB1
 70
    20
  9
$SURFTAB2
 70
     2
  9
$SURFTYPE
 70
     6
  9
$SURFU
 70
     6
  9
$SURFV
 70
     6
  9
$UCSNAME
  2

  9
$UCSORG
 10
0.0
 20
0.0
 30
0.0
  9
$UCSXDIR
 10
1.0
 20
0.0
 30
0.0
  9
$UCSYDIR
 10
0.0
 20
1.0
 30
0.0
  9
$PUCSNAME
  2

  9
$PUCSORG
 10
0.0
 20
0.0
 30
0.0
  9
$PUCSXDIR
 10
1.0
 20
0.0
 30
0.0
  9
$PUCSYDIR
 10
0.0
 20
1.0
 30
0.0
  9
$USERI1
 70
     0
  9
$USERI2
 70
     0
  9
$USERI3
 70
     0
  9
$USERI4
 70
     0
  9
$USERI5
 70
     0
  9
$USERR1
 40
0.0
  9
$USERR2
 40
0.0
  9
$USERR3
 40
0.0
  9
$USERR4
 40
0.0
  9
$USERR5
 40
0.0
  9
$WORLDVIEW
 70
     1
  9
$SHADEDGE
 70
     3
  9
$SHADEDIF
 70
    70
  9
$TILEMODE
 70
     1
  9
$MAXACTVP
 70
    16
  9
$PINSBASE
 10
0.0
 20
0.0
 30
0.0
  9
$PLIMCHECK
 70
     0
  9
$PEXTMIN
 10
1.000000E+20
 20
1.000000E+20
 30
1.000000E+20
  9
$PEXTMAX
 10
-1.000000E+20
 20
-1.000000E+20
 30
-1.000000E+20
  9
$PLIMMIN
 10
0.0
 20
0.0
  9
$PLIMMAX
 10
420.0
 20
297.0
  9
$UNITMODE
 70
     0
  9
$VISRETAIN
 70
     0
  9
$PLINEGEN
 70
     0
  9
$PSLTSCALE
 70
     1
  9
$TREEDEPTH
 70
  3020
  9
$DWGCODEPAGE
  3
dos850
  0
ENDSEC
  0
SECTION
  2
TABLES
  0
TABLE
  2
VPORT
 70
     1
  0
VPORT
  2
*ACTIVE
 70
     0
 10
0.0
 20
0.0
 11
1.0
 21
1.0
 12
621.63535
 22
134.909433
 13
0.0
 23
0.0
 14
10.0
 24
10.0
 15
10.0
 25
10.0
 16
-1.0
 26
-1.0
 36
1.0
 17
0.0
 27
0.0
 37
0.0
 40
1142.696391
 41
1.357349
 42
50.0
 43
0.0
 44
0.0
 50
0.0
 51
0.0
 71
     0
 72
   100
 73
     1
 74
     1
 75
     0
 76
     0
 77
     0
 78
     0
  0
ENDTAB
  0
TABLE
  2
LTYPE
 70
     1
  0
LTYPE
  2
CONTINUOUS
 70
    64
  3
Solid line
 72
    65
 73
     0
 40
0.0
  0
ENDTAB
  0
TABLE
  2
LAYER
 70
     5
  0
LAYER
  2
0
 70
    64
 62
     7
  6
CONTINUOUS
  0
LAYER
  2
I-STAND
 70
    64
 62
    30
  6
CONTINUOUS
  0
LAYER
  2
ASHADE
 70
    64
 62
     7
  6
CONTINUOUS
  0
LAYER
  2
I-SINK
 70
    64
 62
   120
  6
CONTINUOUS
  0
LAYER
  2
I-STEEL
 70
    64
 62
   253
  6
CONTINUOUS
  0
ENDTAB
  0
TABLE
  2
STYLE
 70
     1
  0
STYLE
  2
STANDARD
 70
    64
 40
0.0
 41
1.0
 50
0.0
 71
     0
 42
2.5
  3
ISOCP
  4

  0
ENDTAB
  0
TABLE
  2
VIEW
 70
     0
  0
ENDTAB
  0
TABLE
  2
UCS
 70
     0
  0
ENDTAB
  0
TABLE
  2
APPID
 70
     3
  0
APPID
  2
ACAD
 70
     0
  0
APPID
  2
AVE_RENDER
 70
     0
  0
APPID
  2
AVE_MATERIAL
 70
     0
  0
ENDTAB
  0
TABLE
  2
DIMSTYLE
 70
     2
  0
DIMSTYLE
  2
STANDARD
 70
     0
  3

  4

  5

  6

  7

 40
1.0
 41
0.18
 42
0.0625
 43
0.38
 44
0.18
 45
0.0
 46
0.0
 47
0.0
 48
0.0
140
0.18
141
0.09
142
0.0
143
25.4
144
1.0
145
0.0
146
1.0
147
0.09
 71
     0
 72
     0
 73
     1
 74
     1
 75
     0
 76
     0
 77
     0
 78
     0
170
     0
171
     2
172
     0
173
     0
174
     0
175
     0
176
     0
177
     0
178
     0
  0
DIMSTYLE
  2
ISO-25
 70
     0
  3

  4

  5

  6

  7

 40
1.0
 41
2.5
 42
0.625
 43
3.75
 44
1.25
 45
0.0
 46
0.0
 47
0.0
 48
0.0
140
2.5
141
2.5
142
0.0
143
0.0394
144
1.0
145
1.0
146
1.0
147
0.625
 71
     0
 72
     0
 73
     1
 74
     0
 75
     0
 76
     0
 77
     1
 78
     8
170
     0
171
     2
172
     1
173
     0
174
     0
175
     0
176
     0
177
     0
178
     0
  0
ENDTAB
  0
ENDSEC
  0
SECTION
  2
BLOCKS
  0
BLOCK
  8
ASHADE
  5
1D2
  2
AVE_RENDER
 70
    64
 10
0.0
 20
0.0
 30
0.0
  1
AVE_RENDER
  3
AVE_RENDER
  0
ENDBLK
  8
0
  5
1D3
  0
BLOCK
  8
ASHADE
  5
1E0
  2
AVE_GLOBAL
 70
    64
 10
0.0
 20
0.0
 30
0.0
  1
AVE_GLOBAL
  3
AVE_GLOBAL
  0
ENDBLK
  8
0
  5
1E1
  0
ENDSEC
  0
SECTION
  2
ENTITIES
  0
VIEWPORT
  8
0
  5
22
 67
     1
 68
     1
 10
261.517699
 20
148.5
 30
0.0
 40
523.035398
 41
297.0
 69
     1
1001
ACAD
1000
MVIEW
1002
{
1070
    16
1010
0.0
1020
0.0
1030
0.0
1010
0.0
1020
0.0
1030
1.0
1040
0.0
1040
297.0
1040
261.517699
1040
148.5
1040
50.0
1040
0.0
1040
0.0
1070
     0
1070
   100
1070
     1
1070
     1
1070
     0
1070
     0
1070
     0
1070
     0
1040
0.0
1040
0.0
1040
0.0
1040
1.0
1040
1.0
1040
10.0
1040
10.0
1070
     0
1002
{
1002
}
1002
}
  0
3DFACE
  8
I-STAND
  5
60
 10
732.221627
 20
589.289592
 30
-98.087342
 11
746.363762
 21
575.147457
 31
-98.087342
 12
774.648033
 22
603.431728
 32
-98.087342
 13
760.505898
 23
617.573864
 33
-98.087342
  0
3DFACE
  8
I-STAND
  5
61
 10
746.363762
 20
575.147457
 30
-98.087342
 11
774.648033
 21
603.431728
 31
-98.087342
 12
774.648033
 22
603.431728
 32
-903.904653
 13
746.363762
 23
575.147457
 33
-903.904653
  0
3DFACE
  8
I-STAND
  5
62
 10
732.221627
 20
589.289592
 30
-903.904653
 11
746.363762
 21
575.147457
 31
-903.904653
 12
746.363762
 22
575.147457
 32
-98.087342
 13
732.221627
 23
589.289592
 33
-98.087342
  0
3DFACE
  8
I-STAND
  5
63
 10
732.221627
 20
589.289592
 30
-98.087342
 11
760.505898
 21
617.573864
 31
-98.087342
 12
760.505898
 22
617.573864
 32
-903.904653
 13
732.221627
 23
589.289592
 33
-903.904653
  0
3DFACE
  8
I-STAND
  5
64
 10
774.648033
 20
603.431728
 30
-903.904653
 11
760.505898
 21
617.573864
 31
-903.904653
 12
760.505898
 22
617.573864
 32
-98.087342
 13
774.648033
 23
603.431728
 33
-98.087342
  0
POLYLINE
  8
I-STAND
  5
65
 66
     1
 10
0.0
 20
0.0
 30
0.0
 70
    17
 71
    28
 72
     3
  0
VERTEX
  8
I-STAND
  5
66
 10
764.041432
 20
606.967262
 30
-570.351715
 70
    64
  0
VERTEX
  8
I-STAND
  5
67
 10
764.041432
 20
606.967262
 30
-560.351715
 70
    64
  0
VERTEX
  8
I-STAND
  5
68
 10
764.041432
 20
606.967262
 30
-550.351715
 70
    64
  0
VERTEX
  8
I-STAND
  5
69
 10
731.500852
 20
632.917508
 30
-570.351715
 70
    64
  0
VERTEX
  8
I-STAND
  5
6A
 10
731.500852
 20
632.917508
 30
-560.351715
 70
    64
  0
VERTEX
  8
I-STAND
  5
6B
 10
731.500852
 20
632.917508
 30
-550.351715
 70
    64
  0
VERTEX
  8
I-STAND
  5
6C
 10
694.001659
 20
650.976168
 30
-570.351715
 70
    64
  0
VERTEX
  8
I-STAND
  5
6D
 10
694.001659
 20
650.976168
 30
-560.351715
 70
    64
  0
VERTEX
  8
I-STAND
  5
6E
 10
694.001659
 20
650.976168
 30
-550.351715
 70
    64
  0
VERTEX
  8
I-STAND
  5
6F
 10
653.42422
 20
660.237704
 30
-570.351715
 70
    64
  0
VERTEX
  8
I-STAND
  5
70
 10
653.42422
 20
660.237704
 30
-560.351715
 70
    64
  0
VERTEX
  8
I-STAND
  5
71
 10
653.42422
 20
660.237704
 30
-550.351715
 70
    64
  0
VERTEX
  8
I-STAND
  5
72
 10
611.803256
 20
660.237704
 30
-570.351715
 70
    64
  0
VERTEX
  8
I-STAND
  5
73
 10
611.803256
 20
660.237704
 30
-560.351715
 70
    64
  0
VERTEX
  8
I-STAND
  5
74
 10
611.803256
 20
660.237704
 30
-550.351715
 70
    64
  0
VERTEX
  8
I-STAND
  5
75
 10
571.225817
 20
650.976168
 30
-570.351715
 70
    64
  0
VERTEX
  8
I-STAND
  5
76
 10
571.225817
 20
650.976168
 30
-560.351715
 70
    64
  0
VERTEX
  8
I-STAND
  5
77
 10
571.225817
 20
650.976168
 30
-550.351715
 70
    64
  0
VERTEX
  8
I-STAND
  5
78
 10
533.726624
 20
632.917508
 30
-570.351715
 70
    64
  0
VERTEX
  8
I-STAND
  5
79
 10
533.726624
 20
632.917508
 30
-560.351715
 70
    64
  0
VERTEX
  8
I-STAND
  5
7A
 10
533.726624
 20
632.917508
 30
-550.351715
 70
    64
  0
VERTEX
  8
I-STAND
  5
7B
 10
501.186044
 20
606.967262
 30
-570.351715
 70
    64
  0
VERTEX
  8
I-STAND
  5
7C
 10
501.186044
 20
606.967262
 30
-560.351715
 70
    64
  0
VERTEX
  8
I-STAND
  5
7D
 10
501.186044
 20
606.967262
 30
-550.351715
 70
    64
  0
VERTEX
  8
I-STAND
  5
7E
 10
475.235797
 20
574.426682
 30
-570.351715
 70
    64
  0
VERTEX
  8
I-STAND
  5
7F
 10
475.235797
 20
574.426682
 30
-560.351715
 70
    64
  0
VERTEX
  8
I-STAND
  5
80
 10
475.235797
 20
574.426682
 30
-550.351715
 70
    64
  0
VERTEX
  8
I-STAND
  5
81
 10
457.177138
 20
536.927489
 30
-570.351715
 70
    64
  0
VERTEX
  8
I-STAND
  5
82
 10
457.177138
 20
536.927489
 30
-560.351715
 70
    64
  0
VERTEX
  8
I-STAND
  5
83
 10
457.177138
 20
536.927489
 30
-550.351715
 70
    64
  0
VERTEX
  8
I-STAND
  5
84
 10
447.915602
 20
496.35005
 30
-570.351715
 70
    64
  0
VERTEX
  8
I-STAND
  5
85
 10
447.915602
 20
496.35005
 30
-560.351715
 70
    64
  0
VERTEX
  8
I-STAND
  5
86
 10
447.915602
 20
496.35005
 30
-550.351715
 70
    64
  0
VERTEX
  8
I-STAND
  5
87
 10
447.915602
 20
454.729086
 30
-570.351715
 70
    64
  0
VERTEX
  8
I-STAND
  5
88
 10
447.915602
 20
454.729086
 30
-560.351715
 70
    64
  0
VERTEX
  8
I-STAND
  5
89
 10
447.915602
 20
454.729086
 30
-550.351715
 70
    64
  0
VERTEX
  8
I-STAND
  5
8A
 10
457.177138
 20
414.151647
 30
-570.351715
 70
    64
  0
VERTEX
  8
I-STAND
  5
8B
 10
457.177138
 20
414.151647
 30
-560.351715
 70
    64
  0
VERTEX
  8
I-STAND
  5
8C
 10
457.177138
 20
414.151647
 30
-550.351715
 70
    64
  0
VERTEX
  8
I-STAND
  5
8D
 10
475.235797
 20
376.652454
 30
-570.351715
 70
    64
  0
VERTEX
  8
I-STAND
  5
8E
 10
475.235797
 20
376.652454
 30
-560.351715
 70
    64
  0
VERTEX
  8
I-STAND
  5
8F
 10
475.235797
 20
376.652454
 30
-550.351715
 70
    64
  0
VERTEX
  8
I-STAND
  5
90
 10
501.186044
 20
344.111874
 30
-570.351715
 70
    64
  0
VERTEX
  8
I-STAND
  5
91
 10
501.186044
 20
344.111874
 30
-560.351715
 70
    64
  0
VERTEX
  8
I-STAND
  5
92
 10
501.186044
 20
344.111874
 30
-550.351715
 70
    64
  0
VERTEX
  8
I-STAND
  5
93
 10
533.726624
 20
318.161628
 30
-570.351715
 70
    64
  0
VERTEX
  8
I-STAND
  5
94
 10
533.726624
 20
318.161628
 30
-560.351715
 70
    64
  0
VERTEX
  8
I-STAND
  5
95
 10
533.726624
 20
318.161628
 30
-550.351715
 70
    64
  0
VERTEX
  8
I-STAND
  5
96
 10
571.225817
 20
300.102968
 30
-570.351715
 70
    64
  0
VERTEX
  8
I-STAND
  5
97
 10
571.225817
 20
300.102968
 30
-560.351715
 70
    64
  0
VERTEX
  8
I-STAND
  5
98
 10
571.225817
 20
300.102968
 30
-550.351715
 70
    64
  0
VERTEX
  8
I-STAND
  5
99
 10
611.803256
 20
290.841433
 30
-570.351715
 70
    64
  0
VERTEX
  8
I-STAND
  5
9A
 10
611.803256
 20
290.841433
 30
-560.351715
 70
    64
  0
VERTEX
  8
I-STAND
  5
9B
 10
611.803256
 20
290.841433
 30
-550.351715
 70
    64
  0
VERTEX
  8
I-STAND
  5
9C
 10
653.42422
 20
290.841433
 30
-570.351715
 70
    64
  0
VERTEX
  8
I-STAND
  5
9D
 10
653.42422
 20
290.841433
 30
-560.351715
 70
    64
  0
VERTEX
  8
I-STAND
  5
9E
 10
653.42422
 20
290.841433
 30
-550.351715
 70
    64
  0
VERTEX
  8
I-STAND
  5
9F
 10
694.001659
 20
300.102968
 30
-570.351715
 70
    64
  0
VERTEX
  8
I-STAND
  5
A0
 10
694.001659
 20
300.102968
 30
-560.351715
 70
    64
  0
VERTEX
  8
I-STAND
  5
A1
 10
694.001659
 20
300.102968
 30
-550.351715
 70
    64
  0
VERTEX
  8
I-STAND
  5
A2
 10
731.500852
 20
318.161628
 30
-570.351715
 70
    64
  0
VERTEX
  8
I-STAND
  5
A3
 10
731.500852
 20
318.161628
 30
-560.351715
 70
    64
  0
VERTEX
  8
I-STAND
  5
A4
 10
731.500852
 20
318.161628
 30
-550.351715
 70
    64
  0
VERTEX
  8
I-STAND
  5
A5
 10
764.041432
 20
344.111874
 30
-570.351715
 70
    64
  0
VERTEX
  8
I-STAND
  5
A6
 10
764.041432
 20
344.111874
 30
-560.351715
 70
    64
  0
VERTEX
  8
I-STAND
  5
A7
 10
764.041432
 20
344.111874
 30
-550.351715
 70
    64
  0
VERTEX
  8
I-STAND
  5
A8
 10
789.991678
 20
376.652454
 30
-570.351715
 70
    64
  0
VERTEX
  8
I-STAND
  5
A9
 10
789.991678
 20
376.652454
 30
-560.351715
 70
    64
  0
VERTEX
  8
I-STAND
  5
AA
 10
789.991678
 20
376.652454
 30
-550.351715
 70
    64
  0
VERTEX
  8
I-STAND
  5
AB
 10
808.050338
 20
414.151647
 30
-570.351715
 70
    64
  0
VERTEX
  8
I-STAND
  5
AC
 10
808.050338
 20
414.151647
 30
-560.351715
 70
    64
  0
VERTEX
  8
I-STAND
  5
AD
 10
808.050338
 20
414.151647
 30
-550.351715
 70
    64
  0
VERTEX
  8
I-STAND
  5
AE
 10
817.311873
 20
454.729086
 30
-570.351715
 70
    64
  0
VERTEX
  8
I-STAND
  5
AF
 10
817.311873
 20
454.729086
 30
-560.351715
 70
    64
  0
VERTEX
  8
I-STAND
  5
B0
 10
817.311873
 20
454.729086
 30
-550.351715
 70
    64
  0
VERTEX
  8
I-STAND
  5
B1
 10
817.311873
 20
496.35005
 30
-570.351715
 70
    64
  0
VERTEX
  8
I-STAND
  5
B2
 10
817.311873
 20
496.35005
 30
-560.351715
 70
    64
  0
VERTEX
  8
I-STAND
  5
B3
 10
817.311873
 20
496.35005
 30
-550.351715
 70
    64
  0
VERTEX
  8
I-STAND
  5
B4
 10
808.050338
 20
536.927489
 30
-570.351715
 70
    64
  0
VERTEX
  8
I-STAND
  5
B5
 10
808.050338
 20
536.927489
 30
-560.351715
 70
    64
  0
VERTEX
  8
I-STAND
  5
B6
 10
808.050338
 20
536.927489
 30
-550.351715
 70
    64
  0
VERTEX
  8
I-STAND
  5
B7
 10
789.991678
 20
574.426682
 30
-570.351715
 70
    64
  0
VERTEX
  8
I-STAND
  5
B8
 10
789.991678
 20
574.426682
 30
-560.351715
 70
    64
  0
VERTEX
  8
I-STAND
  5
B9
 10
789.991678
 20
574.426682
 30
-550.351715
 70
    64
  0
SEQEND
  8
I-STAND
  5
BA
  0
POLYLINE
  8
I-STAND
  5
BB
 66
     1
 10
0.0
 20
0.0
 30
0.0
 70
    17
 71
    28
 72
     3
  0
VERTEX
  8
I-STAND
  5
BC
 10
742.828228
 20
585.754059
 30
-550.351715
 70
    64
  0
VERTEX
  8
I-STAND
  5
BD
 10
753.43483
 20
596.36066
 30
-550.351715
 70
    64
  0
VERTEX
  8
I-STAND
  5
BE
 10
764.041432
 20
606.967262
 30
-550.351715
 70
    64
  0
VERTEX
  8
I-STAND
  5
BF
 10
715.53989
 20
607.515782
 30
-550.351715
 70
    64
  0
VERTEX
  8
I-STAND
  5
C0
 10
723.520371
 20
620.216645
 30
-550.351715
 70
    64
  0
VERTEX
  8
I-STAND
  5
C1
 10
731.500852
 20
632.917508
 30
-550.351715
 70
    64
  0
VERTEX
  8
I-STAND
  5
C2
 10
684.093287
 20
622.659668
 30
-550.351715
 70
    64
  0
VERTEX
  8
I-STAND
  5
C3
 10
689.047473
 20
636.817918
 30
-550.351715
 70
    64
  0
VERTEX
  8
I-STAND
  5
C4
 10
694.001659
 20
650.976168
 30
-550.351715
 70
    64
  0
VERTEX
  8
I-STAND
  5
C5
 10
650.065285
 20
630.426337
 30
-550.351715
 70
    64
  0
VERTEX
  8
I-STAND
  5
C6
 10
651.744753
 20
645.33202
 30
-550.351715
 70
    64
  0
VERTEX
  8
I-STAND
  5
C7
 10
653.42422
 20
660.237704
 30
-550.351715
 70
    64
  0
VERTEX
  8
I-STAND
  5
C8
 10
615.16219
 20
630.426337
 30
-550.351715
 70
    64
  0
VERTEX
  8
I-STAND
  5
C9
 10
613.482723
 20
645.33202
 30
-550.351715
 70
    64
  0
VERTEX
  8
I-STAND
  5
CA
 10
611.803256
 20
660.237704
 30
-550.351715
 70
    64
  0
VERTEX
  8
I-STAND
  5
CB
 10
581.134188
 20
622.659668
 30
-550.351715
 70
    64
  0
VERTEX
  8
I-STAND
  5
CC
 10
576.180002
 20
636.817918
 30
-550.351715
 70
    64
  0
VERTEX
  8
I-STAND
  5
CD
 10
571.225817
 20
650.976168
 30
-550.351715
 70
    64
  0
VERTEX
  8
I-STAND
  5
CE
 10
549.687586
 20
607.515782
 30
-550.351715
 70
    64
  0
VERTEX
  8
I-STAND
  5
CF
 10
541.707105
 20
620.216645
 30
-550.351715
 70
    64
  0
VERTEX
  8
I-STAND
  5
D0
 10
533.726624
 20
632.917508
 30
-550.351715
 70
    64
  0
VERTEX
  8
I-STAND
  5
D1
 10
522.399247
 20
585.754059
 30
-550.351715
 70
    64
  0
VERTEX
  8
I-STAND
  5
D2
 10
511.792646
 20
596.36066
 30
-550.351715
 70
    64
  0
VERTEX
  8
I-STAND
  5
D3
 10
501.186044
 20
606.967262
 30
-550.351715
 70
    64
  0
VERTEX
  8
I-STAND
  5
D4
 10
500.637523
 20
558.46572
 30
-550.351715
 70
    64
  0
VERTEX
  8
I-STAND
  5
D5
 10
487.93666
 20
566.446201
 30
-550.351715
 70
    64
  0
VERTEX
  8
I-STAND
  5
D6
 10
475.235797
 20
574.426682
 30
-550.351715
 70
    64
  0
VERTEX
  8
I-STAND
  5
D7
 10
485.493638
 20
527.019118
 30
-550.351715
 70
    64
  0
VERTEX
  8
I-STAND
  5
D8
 10
471.335388
 20
531.973303
 30
-550.351715
 70
    64
  0
VERTEX
  8
I-STAND
  5
D9
 10
457.177138
 20
536.927489
 30
-550.351715
 70
    64
  0
VERTEX
  8
I-STAND
  5
DA
 10
477.726969
 20
492.991116
 30
-550.351715
 70
    64
  0
VERTEX
  8
I-STAND
  5
DB
 10
462.821285
 20
494.670583
 30
-550.351715
 70
    64
  0
VERTEX
  8
I-STAND
  5
DC
 10
447.915602
 20
496.35005
 30
-550.351715
 70
    64
  0
VERTEX
  8
I-STAND
  5
DD
 10
477.726969
 20
458.08802
 30
-550.351715
 70
    64
  0
VERTEX
  8
I-STAND
  5
DE
 10
462.821285
 20
456.408553
 30
-550.351715
 70
    64
  0
VERTEX
  8
I-STAND
  5
DF
 10
447.915602
 20
454.729086
 30
-550.351715
 70
    64
  0
VERTEX
  8
I-STAND
  5
E0
 10
485.493638
 20
424.060019
 30
-550.351715
 70
    64
  0
VERTEX
  8
I-STAND
  5
E1
 10
471.335388
 20
419.105833
 30
-550.351715
 70
    64
  0
VERTEX
  8
I-STAND
  5
E2
 10
457.177138
 20
414.151647
 30
-550.351715
 70
    64
  0
VERTEX
  8
I-STAND
  5
E3
 10
500.637523
 20
392.613416
 30
-550.351715
 70
    64
  0
VERTEX
  8
I-STAND
  5
E4
 10
487.93666
 20
384.632935
 30
-550.351715
 70
    64
  0
VERTEX
  8
I-STAND
  5
E5
 10
475.235797
 20
376.652454
 30
-550.351715
 70
    64
  0
VERTEX
  8
I-STAND
  5
E6
 10
522.399247
 20
365.325078
 30
-550.351715
 70
    64
  0
VERTEX
  8
I-STAND
  5
E7
 10
511.792646
 20
354.718476
 30
-550.351715
 70
    64
  0
VERTEX
  8
I-STAND
  5
E8
 10
501.186044
 20
344.111874
 30
-550.351715
 70
    64
  0
VERTEX
  8
I-STAND
  5
E9
 10
549.687586
 20
343.563354
 30
-550.351715
 70
    64
  0
VERTEX
  8
I-STAND
  5
EA
 10
541.707105
 20
330.862491
 30
-550.351715
 70
    64
  0
VERTEX
  8
I-STAND
  5
EB
 10
533.726624
 20
318.161628
 30
-550.351715
 70
    64
  0
VERTEX
  8
I-STAND
  5
EC
 10
581.134188
 20
328.419468
 30
-550.351715
 70
    64
  0
VERTEX
  8
I-STAND
  5
ED
 10
576.180002
 20
314.261218
 30
-550.351715
 70
    64
  0
VERTEX
  8
I-STAND
  5
EE
 10
571.225817
 20
300.102968
 30
-550.351715
 70
    64
  0
VERTEX
  8
I-STAND
  5
EF
 10
615.16219
 20
320.652799
 30
-550.351715
 70
    64
  0
VERTEX
  8
I-STAND
  5
F0
 10
613.482723
 20
305.747116
 30
-550.351715
 70
    64
  0
VERTEX
  8
I-STAND
  5
F1
 10
611.803256
 20
290.841433
 30
-550.351715
 70
    64
  0
VERTEX
  8
I-STAND
  5
F2
 10
650.065285
 20
320.652799
 30
-550.351715
 70
    64
  0
VERTEX
  8
I-STAND
  5
F3
 10
651.744753
 20
305.747116
 30
-550.351715
 70
    64
  0
VERTEX
  8
I-STAND
  5
F4
 10
653.42422
 20
290.841433
 30
-550.351715
 70
    64
  0
VERTEX
  8
I-STAND
  5
F5
 10
684.093287
 20
328.419468
 30
-550.351715
 70
    64
  0
VERTEX
  8
I-STAND
  5
F6
 10
689.047473
 20
314.261218
 30
-550.351715
 70
    64
  0
VERTEX
  8
I-STAND
  5
F7
 10
694.001659
 20
300.102968
 30
-550.351715
 70
    64
  0
VERTEX
  8
I-STAND
  5
F8
 10
715.53989
 20
343.563354
 30
-550.351715
 70
    64
  0
VERTEX
  8
I-STAND
  5
F9
 10
723.520371
 20
330.862491
 30
-550.351715
 70
    64
  0
VERTEX
  8
I-STAND
  5
FA
 10
731.500852
 20
318.161628
 30
-550.351715
 70
    64
  0
VERTEX
  8
I-STAND
  5
FB
 10
742.828228
 20
365.325078
 30
-550.351715
 70
    64
  0
VERTEX
  8
I-STAND
  5
FC
 10
753.43483
 20
354.718476
 30
-550.351715
 70
    64
  0
VERTEX
  8
I-STAND
  5
FD
 10
764.041432
 20
344.111874
 30
-550.351715
 70
    64
  0
VERTEX
  8
I-STAND
  5
FE
 10
764.589952
 20
392.613416
 30
-550.351715
 70
    64
  0
VERTEX
  8
I-STAND
  5
FF
 10
777.290815
 20
384.632935
 30
-550.351715
 70
    64
  0
VERTEX
  8
I-STAND
  5
100
 10
789.991678
 20
376.652454
 30
-550.351715
 70
    64
  0
VERTEX
  8
I-STAND
  5
101
 10
779.733838
 20
424.060019
 30
-550.351715
 70
    64
  0
VERTEX
  8
I-STAND
  5
102
 10
793.892088
 20
419.105833
 30
-550.351715
 70
    64
  0
VERTEX
  8
I-STAND
  5
103
 10
808.050338
 20
414.151647
 30
-550.351715
 70
    64
  0
VERTEX
  8
I-STAND
  5
104
 10
787.500507
 20
458.08802
 30
-550.351715
 70
    64
  0
VERTEX
  8
I-STAND
  5
105
 10
802.40619
 20
456.408553
 30
-550.351715
 70
    64
  0
VERTEX
  8
I-STAND
  5
106
 10
817.311873
 20
454.729086
 30
-550.351715
 70
    64
  0
VERTEX
  8
I-STAND
  5
107
 10
787.500507
 20
492.991116
 30
-550.351715
 70
    64
  0
VERTEX
  8
I-STAND
  5
108
 10
802.40619
 20
494.670583
 30
-550.351715
 70
    64
  0
VERTEX
  8
I-STAND
  5
109
 10
817.311873
 20
496.35005
 30
-550.351715
 70
    64
  0
VERTEX
  8
I-STAND
  5
10A
 10
779.733838
 20
527.019118
 30
-550.351715
 70
    64
  0
VERTEX
  8
I-STAND
  5
10B
 10
793.892088
 20
531.973303
 30
-550.351715
 70
    64
  0
VERTEX
  8
I-STAND
  5
10C
 10
808.050338
 20
536.927489
 30
-550.351715
 70
    64
  0
VERTEX
  8
I-STAND
  5
10D
 10
764.589952
 20
558.46572
 30
-550.351715
 70
    64
  0
VERTEX
  8
I-STAND
  5
10E
 10
777.290815
 20
566.446201
 30
-550.351715
 70
    64
  0
VERTEX
  8
I-STAND
  5
10F
 10
789.991678
 20
574.426682
 30
-550.351715
 70
    64
  0
SEQEND
  8
I-STAND
  5
110
  0
POLYLINE
  8
I-STAND
  5
111
 66
     1
 10
0.0
 20
0.0
 30
0.0
 70
    17
 71
    28
 72
     3
  0
VERTEX
  8
I-STAND
  5
112
 10
742.828228
 20
585.754059
 30
-570.351715
 70
    64
  0
VERTEX
  8
I-STAND
  5
113
 10
753.43483
 20
596.36066
 30
-570.351715
 70
    64
  0
VERTEX
  8
I-STAND
  5
114
 10
764.041432
 20
606.967262
 30
-570.351715
 70
    64
  0
VERTEX
  8
I-STAND
  5
115
 10
715.53989
 20
607.515782
 30
-570.351715
 70
    64
  0
VERTEX
  8
I-STAND
  5
116
 10
723.520371
 20
620.216645
 30
-570.351715
 70
    64
  0
VERTEX
  8
I-STAND
  5
117
 10
731.500852
 20
632.917508
 30
-570.351715
 70
    64
  0
VERTEX
  8
I-STAND
  5
118
 10
684.093287
 20
622.659668
 30
-570.351715
 70
    64
  0
VERTEX
  8
I-STAND
  5
119
 10
689.047473
 20
636.817918
 30
-570.351715
 70
    64
  0
VERTEX
  8
I-STAND
  5
11A
 10
694.001659
 20
650.976168
 30
-570.351715
 70
    64
  0
VERTEX
  8
I-STAND
  5
11B
 10
650.065285
 20
630.426337
 30
-570.351715
 70
    64
  0
VERTEX
  8
I-STAND
  5
11C
 10
651.744753
 20
645.33202
 30
-570.351715
 70
    64
  0
VERTEX
  8
I-STAND
  5
11D
 10
653.42422
 20
660.237704
 30
-570.351715
 70
    64
  0
VERTEX
  8
I-STAND
  5
11E
 10
615.16219
 20
630.426337
 30
-570.351715
 70
    64
  0
VERTEX
  8
I-STAND
  5
11F
 10
613.482723
 20
645.33202
 30
-570.351715
 70
    64
  0
VERTEX
  8
I-STAND
  5
120
 10
611.803256
 20
660.237704
 30
-570.351715
 70
    64
  0
VERTEX
  8
I-STAND
  5
121
 10
581.134188
 20
622.659668
 30
-570.351715
 70
    64
  0
VERTEX
  8
I-STAND
  5
122
 10
576.180002
 20
636.817918
 30
-570.351715
 70
    64
  0
VERTEX
  8
I-STAND
  5
123
 10
571.225817
 20
650.976168
 30
-570.351715
 70
    64
  0
VERTEX
  8
I-STAND
  5
124
 10
549.687586
 20
607.515782
 30
-570.351715
 70
    64
  0
VERTEX
  8
I-STAND
  5
125
 10
541.707105
 20
620.216645
 30
-570.351715
 70
    64
  0
VERTEX
  8
I-STAND
  5
126
 10
533.726624
 20
632.917508
 30
-570.351715
 70
    64
  0
VERTEX
  8
I-STAND
  5
127
 10
522.399247
 20
585.754059
 30
-570.351715
 70
    64
  0
VERTEX
  8
I-STAND
  5
128
 10
511.792646
 20
596.36066
 30
-570.351715
 70
    64
  0
VERTEX
  8
I-STAND
  5
129
 10
501.186044
 20
606.967262
 30
-570.351715
 70
    64
  0
VERTEX
  8
I-STAND
  5
12A
 10
500.637523
 20
558.46572
 30
-570.351715
 70
    64
  0
VERTEX
  8
I-STAND
  5
12B
 10
487.93666
 20
566.446201
 30
-570.351715
 70
    64
  0
VERTEX
  8
I-STAND
  5
12C
 10
475.235797
 20
574.426682
 30
-570.351715
 70
    64
  0
VERTEX
  8
I-STAND
  5
12D
 10
485.493638
 20
527.019118
 30
-570.351715
 70
    64
  0
VERTEX
  8
I-STAND
  5
12E
 10
471.335388
 20
531.973303
 30
-570.351715
 70
    64
  0
VERTEX
  8
I-STAND
  5
12F
 10
457.177138
 20
536.927489
 30
-570.351715
 70
    64
  0
VERTEX
  8
I-STAND
  5
130
 10
477.726969
 20
492.991116
 30
-570.351715
 70
    64
  0
VERTEX
  8
I-STAND
  5
131
 10
462.821285
 20
494.670583
 30
-570.351715
 70
    64
  0
VERTEX
  8
I-STAND
  5
132
 10
447.915602
 20
496.35005
 30
-570.351715
 70
    64
  0
VERTEX
  8
I-STAND
  5
133
 10
477.726969
 20
458.08802
 30
-570.351715
 70
    64
  0
VERTEX
  8
I-STAND
  5
134
 10
462.821285
 20
456.408553
 30
-570.351715
 70
    64
  0
VERTEX
  8
I-STAND
  5
135
 10
447.915602
 20
454.729086
 30
-570.351715
 70
    64
  0
VERTEX
  8
I-STAND
  5
136
 10
485.493638
 20
424.060019
 30
-570.351715
 70
    64
  0
VERTEX
  8
I-STAND
  5
137
 10
471.335388
 20
419.105833
 30
-570.351715
 70
    64
  0
VERTEX
  8
I-STAND
  5
138
 10
457.177138
 20
414.151647
 30
-570.351715
 70
    64
  0
VERTEX
  8
I-STAND
  5
139
 10
500.637523
 20
392.613416
 30
-570.351715
 70
    64
  0
VERTEX
  8
I-STAND
  5
13A
 10
487.93666
 20
384.632935
 30
-570.351715
 70
    64
  0
VERTEX
  8
I-STAND
  5
13B
 10
475.235797
 20
376.652454
 30
-570.351715
 70
    64
  0
VERTEX
  8
I-STAND
  5
13C
 10
522.399247
 20
365.325078
 30
-570.351715
 70
    64
  0
VERTEX
  8
I-STAND
  5
13D
 10
511.792646
 20
354.718476
 30
-570.351715
 70
    64
  0
VERTEX
  8
I-STAND
  5
13E
 10
501.186044
 20
344.111874
 30
-570.351715
 70
    64
  0
VERTEX
  8
I-STAND
  5
13F
 10
549.687586
 20
343.563354
 30
-570.351715
 70
    64
  0
VERTEX
  8
I-STAND
  5
140
 10
541.707105
 20
330.862491
 30
-570.351715
 70
    64
  0
VERTEX
  8
I-STAND
  5
141
 10
533.726624
 20
318.161628
 30
-570.351715
 70
    64
  0
VERTEX
  8
I-STAND
  5
142
 10
581.134188
 20
328.419468
 30
-570.351715
 70
    64
  0
VERTEX
  8
I-STAND
  5
143
 10
576.180002
 20
314.261218
 30
-570.351715
 70
    64
  0
VERTEX
  8
I-STAND
  5
144
 10
571.225817
 20
300.102968
 30
-570.351715
 70
    64
  0
VERTEX
  8
I-STAND
  5
145
 10
615.16219
 20
320.652799
 30
-570.351715
 70
    64
  0
VERTEX
  8
I-STAND
  5
146
 10
613.482723
 20
305.747116
 30
-570.351715
 70
    64
  0
VERTEX
  8
I-STAND
  5
147
 10
611.803256
 20
290.841433
 30
-570.351715
 70
    64
  0
VERTEX
  8
I-STAND
  5
148
 10
650.065285
 20
320.652799
 30
-570.351715
 70
    64
  0
VERTEX
  8
I-STAND
  5
149
 10
651.744753
 20
305.747116
 30
-570.351715
 70
    64
  0
VERTEX
  8
I-STAND
  5
14A
 10
653.42422
 20
290.841433
 30
-570.351715
 70
    64
  0
VERTEX
  8
I-STAND
  5
14B
 10
684.093287
 20
328.419468
 30
-570.351715
 70
    64
  0
VERTEX
  8
I-STAND
  5
14C
 10
689.047473
 20
314.261218
 30
-570.351715
 70
    64
  0
VERTEX
  8
I-STAND
  5
14D
 10
694.001659
 20
300.102968
 30
-570.351715
 70
    64
  0
VERTEX
  8
I-STAND
  5
14E
 10
715.53989
 20
343.563354
 30
-570.351715
 70
    64
  0
VERTEX
  8
I-STAND
  5
14F
 10
723.520371
 20
330.862491
 30
-570.351715
 70
    64
  0
VERTEX
  8
I-STAND
  5
150
 10
731.500852
 20
318.161628
 30
-570.351715
 70
    64
  0
VERTEX
  8
I-STAND
  5
151
 10
742.828228
 20
365.325078
 30
-570.351715
 70
    64
  0
VERTEX
  8
I-STAND
  5
152
 10
753.43483
 20
354.718476
 30
-570.351715
 70
    64
  0
VERTEX
  8
I-STAND
  5
153
 10
764.041432
 20
344.111874
 30
-570.351715
 70
    64
  0
VERTEX
  8
I-STAND
  5
154
 10
764.589952
 20
392.613416
 30
-570.351715
 70
    64
  0
VERTEX
  8
I-STAND
  5
155
 10
777.290815
 20
384.632935
 30
-570.351715
 70
    64
  0
VERTEX
  8
I-STAND
  5
156
 10
789.991678
 20
376.652454
 30
-570.351715
 70
    64
  0
VERTEX
  8
I-STAND
  5
157
 10
779.733838
 20
424.060019
 30
-570.351715
 70
    64
  0
VERTEX
  8
I-STAND
  5
158
 10
793.892088
 20
419.105833
 30
-570.351715
 70
    64
  0
VERTEX
  8
I-STAND
  5
159
 10
808.050338
 20
414.151647
 30
-570.351715
 70
    64
  0
VERTEX
  8
I-STAND
  5
15A
 10
787.500507
 20
458.08802
 30
-570.351715
 70
    64
  0
VERTEX
  8
I-STAND
  5
15B
 10
802.40619
 20
456.408553
 30
-570.351715
 70
    64
  0
VERTEX
  8
I-STAND
  5
15C
 10
817.311873
 20
454.729086
 30
-570.351715
 70
    64
  0
VERTEX
  8
I-STAND
  5
15D
 10
787.500507
 20
492.991116
 30
-570.351715
 70
    64
  0
VERTEX
  8
I-STAND
  5
15E
 10
802.40619
 20
494.670583
 30
-570.351715
 70
    64
  0
VERTEX
  8
I-STAND
  5
15F
 10
817.311873
 20
496.35005
 30
-570.351715
 70
    64
  0
VERTEX
  8
I-STAND
  5
160
 10
779.733838
 20
527.019118
 30
-570.351715
 70
    64
  0
VERTEX
  8
I-STAND
  5
161
 10
793.892088
 20
531.973303
 30
-570.351715
 70
    64
  0
VERTEX
  8
I-STAND
  5
162
 10
808.050338
 20
536.927489
 30
-570.351715
 70
    64
  0
VERTEX
  8
I-STAND
  5
163
 10
764.589952
 20
558.46572
 30
-570.351715
 70
    64
  0
VERTEX
  8
I-STAND
  5
164
 10
777.290815
 20
566.446201
 30
-570.351715
 70
    64
  0
VERTEX
  8
I-STAND
  5
165
 10
789.991678
 20
574.426682
 30
-570.351715
 70
    64
  0
SEQEND
  8
I-STAND
  5
166
  0
POLYLINE
  8
I-STAND
  5
167
 66
     1
 10
0.0
 20
0.0
 30
0.0
 70
    17
 71
    28
 72
     3
  0
VERTEX
  8
I-STAND
  5
168
 10
742.828228
 20
585.754059
 30
-570.351715
 70
    64
  0
VERTEX
  8
I-STAND
  5
169
 10
742.828228
 20
585.754059
 30
-560.351715
 70
    64
  0
VERTEX
  8
I-STAND
  5
16A
 10
742.828228
 20
585.754059
 30
-550.351715
 70
    64
  0
VERTEX
  8
I-STAND
  5
16B
 10
715.53989
 20
607.515782
 30
-570.351715
 70
    64
  0
VERTEX
  8
I-STAND
  5
16C
 10
715.53989
 20
607.515782
 30
-560.351715
 70
    64
  0
VERTEX
  8
I-STAND
  5
16D
 10
715.53989
 20
607.515782
 30
-550.351715
 70
    64
  0
VERTEX
  8
I-STAND
  5
16E
 10
684.093287
 20
622.659668
 30
-570.351715
 70
    64
  0
VERTEX
  8
I-STAND
  5
16F
 10
684.093287
 20
622.659668
 30
-560.351715
 70
    64
  0
VERTEX
  8
I-STAND
  5
170
 10
684.093287
 20
622.659668
 30
-550.351715
 70
    64
  0
VERTEX
  8
I-STAND
  5
171
 10
650.065285
 20
630.426337
 30
-570.351715
 70
    64
  0
VERTEX
  8
I-STAND
  5
172
 10
650.065285
 20
630.426337
 30
-560.351715
 70
    64
  0
VERTEX
  8
I-STAND
  5
173
 10
650.065285
 20
630.426337
 30
-550.351715
 70
    64
  0
VERTEX
  8
I-STAND
  5
174
 10
615.16219
 20
630.426337
 30
-570.351715
 70
    64
  0
VERTEX
  8
I-STAND
  5
175
 10
615.16219
 20
630.426337
 30
-560.351715
 70
    64
  0
VERTEX
  8
I-STAND
  5
176
 10
615.16219
 20
630.426337
 30
-550.351715
 70
    64
  0
VERTEX
  8
I-STAND
  5
177
 10
581.134188
 20
622.659668
 30
-570.351715
 70
    64
  0
VERTEX
  8
I-STAND
  5
178
 10
581.134188
 20
622.659668
 30
-560.351715
 70
    64
  0
VERTEX
  8
I-STAND
  5
179
 10
581.134188
 20
622.659668
 30
-550.351715
 70
    64
  0
VERTEX
  8
I-STAND
  5
17A
 10
549.687586
 20
607.515782
 30
-570.351715
 70
    64
  0
VERTEX
  8
I-STAND
  5
17B
 10
549.687586
 20
607.515782
 30
-560.351715
 70
    64
  0
VERTEX
  8
I-STAND
  5
17C
 10
549.687586
 20
607.515782
 30
-550.351715
 70
    64
  0
VERTEX
  8
I-STAND
  5
17D
 10
522.399247
 20
585.754059
 30
-570.351715
 70
    64
  0
VERTEX
  8
I-STAND
  5
17E
 10
522.399247
 20
585.754059
 30
-560.351715
 70
    64
  0
VERTEX
  8
I-STAND
  5
17F
 10
522.399247
 20
585.754059
 30
-550.351715
 70
    64
  0
VERTEX
  8
I-STAND
  5
180
 10
500.637523
 20
558.46572
 30
-570.351715
 70
    64
  0
VERTEX
  8
I-STAND
  5
181
 10
500.637523
 20
558.46572
 30
-560.351715
 70
    64
  0
VERTEX
  8
I-STAND
  5
182
 10
500.637523
 20
558.46572
 30
-550.351715
 70
    64
  0
VERTEX
  8
I-STAND
  5
183
 10
485.493638
 20
527.019118
 30
-570.351715
 70
    64
  0
VERTEX
  8
I-STAND
  5
184
 10
485.493638
 20
527.019118
 30
-560.351715
 70
    64
  0
VERTEX
  8
I-STAND
  5
185
 10
485.493638
 20
527.019118
 30
-550.351715
 70
    64
  0
VERTEX
  8
I-STAND
  5
186
 10
477.726969
 20
492.991116
 30
-570.351715
 70
    64
  0
VERTEX
  8
I-STAND
  5
187
 10
477.726969
 20
492.991116
 30
-560.351715
 70
    64
  0
VERTEX
  8
I-STAND
  5
188
 10
477.726969
 20
492.991116
 30
-550.351715
 70
    64
  0
VERTEX
  8
I-STAND
  5
189
 10
477.726969
 20
458.08802
 30
-570.351715
 70
    64
  0
VERTEX
  8
I-STAND
  5
18A
 10
477.726969
 20
458.08802
 30
-560.351715
 70
    64
  0
VERTEX
  8
I-STAND
  5
18B
 10
477.726969
 20
458.08802
 30
-550.351715
 70
    64
  0
VERTEX
  8
I-STAND
  5
18C
 10
485.493638
 20
424.060019
 30
-570.351715
 70
    64
  0
VERTEX
  8
I-STAND
  5
18D
 10
485.493638
 20
424.060019
 30
-560.351715
 70
    64
  0
VERTEX
  8
I-STAND
  5
18E
 10
485.493638
 20
424.060019
 30
-550.351715
 70
    64
  0
VERTEX
  8
I-STAND
  5
18F
 10
500.637523
 20
392.613416
 30
-570.351715
 70
    64
  0
VERTEX
  8
I-STAND
  5
190
 10
500.637523
 20
392.613416
 30
-560.351715
 70
    64
  0
VERTEX
  8
I-STAND
  5
191
 10
500.637523
 20
392.613416
 30
-550.351715
 70
    64
  0
VERTEX
  8
I-STAND
  5
192
 10
522.399247
 20
365.325078
 30
-570.351715
 70
    64
  0
VERTEX
  8
I-STAND
  5
193
 10
522.399247
 20
365.325078
 30
-560.351715
 70
    64
  0
VERTEX
  8
I-STAND
  5
194
 10
522.399247
 20
365.325078
 30
-550.351715
 70
    64
  0
VERTEX
  8
I-STAND
  5
195
 10
549.687586
 20
343.563354
 30
-570.351715
 70
    64
  0
VERTEX
  8
I-STAND
  5
196
 10
549.687586
 20
343.563354
 30
-560.351715
 70
    64
  0
VERTEX
  8
I-STAND
  5
197
 10
549.687586
 20
343.563354
 30
-550.351715
 70
    64
  0
VERTEX
  8
I-STAND
  5
198
 10
581.134188
 20
328.419468
 30
-570.351715
 70
    64
  0
VERTEX
  8
I-STAND
  5
199
 10
581.134188
 20
328.419468
 30
-560.351715
 70
    64
  0
VERTEX
  8
I-STAND
  5
19A
 10
581.134188
 20
328.419468
 30
-550.351715
 70
    64
  0
VERTEX
  8
I-STAND
  5
19B
 10
615.16219
 20
320.652799
 30
-570.351715
 70
    64
  0
VERTEX
  8
I-STAND
  5
19C
 10
615.16219
 20
320.652799
 30
-560.351715
 70
    64
  0
VERTEX
  8
I-STAND
  5
19D
 10
615.16219
 20
320.652799
 30
-550.351715
 70
    64
  0
VERTEX
  8
I-STAND
  5
19E
 10
650.065285
 20
320.652799
 30
-570.351715
 70
    64
  0
VERTEX
  8
I-STAND
  5
19F
 10
650.065285
 20
320.652799
 30
-560.351715
 70
    64
  0
VERTEX
  8
I-STAND
  5
1A0
 10
650.065285
 20
320.652799
 30
-550.351715
 70
    64
  0
VERTEX
  8
I-STAND
  5
1A1
 10
684.093287
 20
328.419468
 30
-570.351715
 70
    64
  0
VERTEX
  8
I-STAND
  5
1A2
 10
684.093287
 20
328.419468
 30
-560.351715
 70
    64
  0
VERTEX
  8
I-STAND
  5
1A3
 10
684.093287
 20
328.419468
 30
-550.351715
 70
    64
  0
VERTEX
  8
I-STAND
  5
1A4
 10
715.53989
 20
343.563354
 30
-570.351715
 70
    64
  0
VERTEX
  8
I-STAND
  5
1A5
 10
715.53989
 20
343.563354
 30
-560.351715
 70
    64
  0
VERTEX
  8
I-STAND
  5
1A6
 10
715.53989
 20
343.563354
 30
-550.351715
 70
    64
  0
VERTEX
  8
I-STAND
  5
1A7
 10
742.828228
 20
365.325078
 30
-570.351715
 70
    64
  0
VERTEX
  8
I-STAND
  5
1A8
 10
742.828228
 20
365.325078
 30
-560.351715
 70
    64
  0
VERTEX
  8
I-STAND
  5
1A9
 10
742.828228
 20
365.325078
 30
-550.351715
 70
    64
  0
VERTEX
  8
I-STAND
  5
1AA
 10
764.589952
 20
392.613416
 30
-570.351715
 70
    64
  0
VERTEX
  8
I-STAND
  5
1AB
 10
764.589952
 20
392.613416
 30
-560.351715
 70
    64
  0
VERTEX
  8
I-STAND
  5
1AC
 10
764.589952
 20
392.613416
 30
-550.351715
 70
    64
  0
VERTEX
  8
I-STAND
  5
1AD
 10
779.733838
 20
424.060019
 30
-570.351715
 70
    64
  0
VERTEX
  8
I-STAND
  5
1AE
 10
779.733838
 20
424.060019
 30
-560.351715
 70
    64
  0
VERTEX
  8
I-STAND
  5
1AF
 10
779.733838
 20
424.060019
 30
-550.351715
 70
    64
  0
VERTEX
  8
I-STAND
  5
1B0
 10
787.500507
 20
458.08802
 30
-570.351715
 70
    64
  0
VERTEX
  8
I-STAND
  5
1B1
 10
787.500507
 20
458.08802
 30
-560.351715
 70
    64
  0
VERTEX
  8
I-STAND
  5
1B2
 10
787.500507
 20
458.08802
 30
-550.351715
 70
    64
  0
VERTEX
  8
I-STAND
  5
1B3
 10
787.500507
 20
492.991116
 30
-570.351715
 70
    64
  0
VERTEX
  8
I-STAND
  5
1B4
 10
787.500507
 20
492.991116
 30
-560.351715
 70
    64
  0
VERTEX
  8
I-STAND
  5
1B5
 10
787.500507
 20
492.991116
 30
-550.351715
 70
    64
  0
VERTEX
  8
I-STAND
  5
1B6
 10
779.733838
 20
527.019118
 30
-570.351715
 70
    64
  0
VERTEX
  8
I-STAND
  5
1B7
 10
779.733838
 20
527.019118
 30
-560.351715
 70
    64
  0
VERTEX
  8
I-STAND
  5
1B8
 10
779.733838
 20
527.019118
 30
-550.351715
 70
    64
  0
VERTEX
  8
I-STAND
  5
1B9
 10
764.589952
 20
558.46572
 30
-570.351715
 70
    64
  0
VERTEX
  8
I-STAND
  5
1BA
 10
764.589952
 20
558.46572
 30
-560.351715
 70
    64
  0
VERTEX
  8
I-STAND
  5
1BB
 10
764.589952
 20
558.46572
 30
-550.351715
 70
    64
  0
SEQEND
  8
I-STAND
  5
1BC
  0
3DFACE
  8
I-STAND
  5
1BD
 10
518.863713
 20
575.147457
 30
-98.087342
 11
533.005849
 21
589.289592
 31
-98.087342
 12
504.721578
 22
617.573864
 32
-98.087342
 13
490.579442
 23
603.431728
 33
-98.087342
  0
3DFACE
  8
I-STAND
  5
1BE
 10
504.721578
 20
617.573864
 30
-903.904653
 11
490.579442
 21
603.431728
 31
-903.904653
 12
490.579442
 22
603.431728
 32
-98.087342
 13
504.721578
 23
617.573864
 33
-98.087342
  0
3DFACE
  8
I-STAND
  5
1BF
 10
518.863713
 20
575.147457
 30
-98.087342
 11
490.579442
 21
603.431728
 31
-98.087342
 12
490.579442
 22
603.431728
 32
-903.904653
 13
518.863713
 23
575.147457
 33
-903.904653
  0
3DFACE
  8
I-STAND
  5
1C0
 10
518.863713
 20
575.147457
 30
-903.904653
 11
533.005849
 21
589.289592
 31
-903.904653
 12
533.005849
 22
589.289592
 32
-98.087342
 13
518.863713
 23
575.147457
 33
-98.087342
  0
3DFACE
  8
I-STAND
  5
1C1
 10
533.005849
 20
589.289592
 30
-98.087342
 11
504.721578
 21
617.573864
 31
-98.087342
 12
504.721578
 22
617.573864
 32
-903.904653
 13
533.005849
 23
589.289592
 33
-903.904653
  0
3DFACE
  8
I-STAND
  5
1C2
 10
533.005849
 20
361.789544
 30
-98.087342
 11
518.863713
 21
375.931679
 31
-98.087342
 12
490.579442
 22
347.647408
 32
-98.087342
 13
504.721578
 23
333.505272
 33
-98.087342
  0
3DFACE
  8
I-STAND
  5
1C3
 10
490.579442
 20
347.647408
 30
-903.904653
 11
504.721578
 21
333.505272
 31
-903.904653
 12
504.721578
 22
333.505272
 32
-98.087342
 13
490.579442
 23
347.647408
 33
-98.087342
  0
3DFACE
  8
I-STAND
  5
1C4
 10
533.005849
 20
361.789544
 30
-98.087342
 11
504.721578
 21
333.505272
 31
-98.087342
 12
504.721578
 22
333.505272
 32
-903.904653
 13
533.005849
 23
361.789544
 33
-903.904653
  0
3DFACE
  8
I-STAND
  5
1C5
 10
533.005849
 20
361.789544
 30
-903.904653
 11
518.863713
 21
375.931679
 31
-903.904653
 12
518.863713
 22
375.931679
 32
-98.087342
 13
533.005849
 23
361.789544
 33
-98.087342
  0
3DFACE
  8
I-STAND
  5
1C6
 10
518.863713
 20
375.931679
 30
-98.087342
 11
490.579442
 21
347.647408
 31
-98.087342
 12
490.579442
 22
347.647408
 32
-903.904653
 13
518.863713
 23
375.931679
 33
-903.904653
  0
3DFACE
  8
I-STAND
  5
1C7
 10
746.363762
 20
375.931679
 30
-98.087342
 11
732.221627
 21
361.789544
 31
-98.087342
 12
760.505898
 22
333.505272
 32
-98.087342
 13
774.648033
 23
347.647408
 33
-98.087342
  0
3DFACE
  8
I-STAND
  5
1C8
 10
760.505898
 20
333.505272
 30
-903.904653
 11
774.648033
 21
347.647408
 31
-903.904653
 12
774.648033
 22
347.647408
 32
-98.087342
 13
760.505898
 23
333.505272
 33
-98.087342
  0
3DFACE
  8
I-STAND
  5
1C9
 10
746.363762
 20
375.931679
 30
-98.087342
 11
774.648033
 21
347.647408
 31
-98.087342
 12
774.648033
 22
347.647408
 32
-903.904653
 13
746.363762
 23
375.931679
 33
-903.904653
  0
3DFACE
  8
I-STAND
  5
1CA
 10
746.363762
 20
375.931679
 30
-903.904653
 11
732.221627
 21
361.789544
 31
-903.904653
 12
732.221627
 22
361.789544
 32
-98.087342
 13
746.363762
 23
375.931679
 33
-98.087342
  0
3DFACE
  8
I-STAND
  5
1CB
 10
732.221627
 20
361.789544
 30
-98.087342
 11
760.505898
 21
333.505272
 31
-98.087342
 12
760.505898
 22
333.505272
 32
-903.904653
 13
732.221627
 23
361.789544
 33
-903.904653
  0
INSERT
  8
ASHADE
 62
     1
  5
1D4
  2
AVE_RENDER
 10
0.0
 20
0.0
 30
0.0
1001
AVE_RENDER
1002
{
1070
     6
1000
Pref
1070
    30
1070
    20
1070
     1
1070
     0
1000

1070
    10
1070
     1
1070
    30
1040
25.4
1070
     1
1040
0.3
1040
0.7
1040
0.0
1040
10.0
1010
-1.0
1020
-1.0
1030
-1.0
1040
0.3
1070
    49
1070
     0
1070
     0
1010
1.0
1020
1.0
1030
1.0
1040
45.0
1070
     1
1070
     0
1000
WCS
1040
0.0
1002
}
  0
INSERT
  8
ASHADE
 62
     3
  5
1D5
  2
AVE_RENDER
 10
0.0
 20
0.0
 30
0.0
1001
AVE_RENDER
1002
{
1070
     0
1000
Full Opt
1070
     0
1070
     1
1070
     1
1070
     1
1070
     0
1070
     0
1070
     0
1070
     1
1070
     1
1040
0.0001
1040
0.0001
1002
}
  0
INSERT
  8
ASHADE
 62
     4
  5
1D6
  2
AVE_RENDER
 10
0.0
 20
0.0
 30
0.0
1001
AVE_RENDER
1002
{
1070
     0
1000
Quick Opt
1070
     0
1070
     1
1070
     1
1070
     1
1070
     0
1070
     0
1070
     1
1002
}
  0
INSERT
  8
ASHADE
 62
     5
  5
1D7
  2
AVE_RENDER
 10
0.0
 20
0.0
 30
0.0
1001
AVE_RENDER
1002
{
1070
     1
1000
Scanl Opt
1070
     2
1070
     0
1070
     2
1040
2.0
1040
4.0
1070
     0
1070
     1
1070
     0
1040
0.03
1002
}
  0
INSERT
  8
ASHADE
 62
     6
  5
1D8
  2
AVE_RENDER
 10
0.0
 20
0.0
 30
0.0
1001
AVE_RENDER
1002
{
1070
     2
1000
Raytr Opt
1070
     2
1070
     0
1070
     2
1040
2.0
1040
4.0
1070
     0
1070
     1
1070
     1
1040
0.03
1070
     3
1040
0.03
1002
}
  0
INSERT
  8
ASHADE
 62
     7
  5
1D9
  2
AVE_RENDER
 10
0.0
 20
0.0
 30
0.0
1001
AVE_RENDER
1002
{
1070
     0
1000
RFile Opt
1070
     5
1070
   640
1070
   480
1070
 10000
1070
     3
1070
    32
1070
    24
1070
     0
1070
     0
1070
     0
1070
     1
1070
     0
1070
     0
1070
     0
1002
}
  0
INSERT
  8
ASHADE
 62
     8
  5
1DA
  2
AVE_RENDER
 10
0.0
 20
0.0
 30
0.0
1001
AVE_RENDER
1002
{
1070
     0
1000
Fog Opt
1070
     0
1070
     0
1040
0.0
1040
1.0
1040
0.0
1040
1.0
1010
0.5
1020
0.5
1030
0.5
1002
}
  0
INSERT
  8
ASHADE
 62
     9
  5
1DB
  2
AVE_RENDER
 10
0.0
 20
0.0
 30
0.0
1001
AVE_RENDER
1002
{
1070
     0
1000
BG Opt
1070
     0
1070
     1
1010
0.0
1020
0.0
1030
0.0
1010
1.0
1020
0.0
1030
0.0
1010
0.0
1020
1.0
1030
0.0
1010
0.0
1020
0.0
1030
1.0
1040
0.5
1040
0.33
1040
0.0
1000

1070
     1
1000

1070
     1
1070
     1
1040
1.0
1040
1.0
1040
0.0
1040
0.0
1070
     0
1002
}
  0
INSERT
  8
ASHADE
 62
     1
  5
1E2
  2
AVE_GLOBAL
 10
0.0
 20
0.0
 30
0.0
1001
AVE_MATERIAL
1002
{
1000
*GLOBAL*
1000
1
1000
Global finish.
1002
{
1002
}
1002
{
1070
    63
1002
{
1002
{
1010
-1.0
1020
-1.0
1030
-1.0
1002
}
1040
0.1
1000

1040
0.0
1002
{
1002
}
1040
0.0
1002
{
1002
}
1040
0.0
1002
}
1002
{
1002
{
1010
-1.0
1020
-1.0
1030
-1.0
1002
}
1040
0.7
1000

1040
0.0
1002
{
1002
}
1040
0.0
1002
{
1002
}
1040
0.0
1002
}
1002
{
1002
{
1010
-1.0
1020
-1.0
1030
-1.0
1002
}
1040
0.2
1000

1040
0.0
1002
{
1002
}
1040
0.0
1002
{
1002
}
1040
0.0
1002
}
1002
{
1070
     0
1002
{
1070
     1
1002
{
1040
1.0
1040
1.0
1000

1040
0.0
1002
{
1002
}
1040
0.0
1002
{
1002
}
1040
0.0
1002
}
1002
}
1040
1.0
1040
0.0
1040
0.0
1002
}
1002
{
1040
1.0
1040
1.0
1000

1040
0.0
1002
{
1002
}
1040
0.0
1002
{
1002
}
1040
0.0
1002
}
1002
{
1040
0.5
1040
1.0
1000

1040
0.0
1002
{
1002
}
1040
0.0
1002
{
1002
}
1040
0.0
1002
}
1002
{
1070
     0
1040
0.0
1002
{
1002
}
1040
1.0
1002
{
1002
}
1040
0.0
1002
}
1002
{
1040
0.0
1002
{
1002
{
1010
0.0
1020
0.0
1030
0.0
1002
}
1040
1.0
1000

1040
0.0
1002
{
1002
}
1040
0.0
1002
{
1002
}
1040
0.0
1002
}
1002
}
1002
{
1002
{
1070
     1
1002
{
1040
0.0
1040
1.0
1000

1040
0.0
1002
{
1002
}
1040
0.0
1002
{
1002
}
1040
0.0
1002
}
1002
}
1040
0.0
1002
{
1002
}
1010
1.0
1020
0.0
1030
0.0
1010
0.0
1020
1.0
1030
0.0
1010
0.0
1020
0.0
1030
1.0
1070
     0
1002
}
1002
{
1002
{
1040
1.0
1040
1.0
1002
{
1070
     1
1002
{
1040
1.0
1040
1.0
1000

1040
0.0
1002
{
1002
}
1040
0.0
1002
{
1002
}
1040
0.0
1002
}
1002
}
1002
}
1070
     0
1040
0.0
1002
{
1002
}
1002
}
1002
{
1002
}
1002
}
1002
{
1071
        3
1070
     3
1070
     0
1002
{
1070
     2
1070
     0
1070
     0
1040
0.0
1002
}
1070
     0
1070
     2
1002
{
1002
}
1002
}
1002
{
1040
8030.0
1040
190.300003
1040
0.305
1040
228.0
1040
545.0
1040
14.0
1040
17.4
1040
0.456
1002
}
1002
}
  0
POLYLINE
  8
I-STEEL
  5
230
 66
     1
 10
0.0
 20
0.0
 30
0.0
 70
    17
 71
    24
 72
     4
  0
VERTEX
  8
I-STEEL
  5
231
 10
632.613738
 20
475.539568
 30
-195.0
 70
    64
  0
VERTEX
  8
I-STEEL
  5
232
 10
644.420864
 20
475.539568
 30
-195.558882
 70
    64
  0
VERTEX
  8
I-STEEL
  5
233
 10
656.12241
 20
475.539568
 30
-197.230532
 70
    64
  0
VERTEX
  8
I-STEEL
  5
234
 10
667.613738
 20
475.539568
 30
-200.0
 70
    64
  0
VERTEX
  8
I-STEEL
  5
235
 10
632.613738
 20
475.539568
 30
-195.0
 70
    64
  0
VERTEX
  8
I-STEEL
  5
236
 10
644.018546
 20
472.483659
 30
-195.558882
 70
    64
  0
VERTEX
  8
I-STEEL
  5
237
 10
655.321371
 20
469.455076
 30
-197.230532
 70
    64
  0
VERTEX
  8
I-STEEL
  5
238
 10
666.421142
 20
466.480902
 30
-200.0
 70
    64
  0
VERTEX
  8
I-STEEL
  5
239
 10
632.613738
 20
475.539568
 30
-195.0
 70
    64
  0
VERTEX
  8
I-STEEL
  5
23A
 10
642.839009
 20
469.636005
 30
-195.558882
 70
    64
  0
VERTEX
  8
I-STEEL
  5
23B
 10
652.972845
 20
463.785232
 30
-197.230532
 70
    64
  0
VERTEX
  8
I-STEEL
  5
23C
 10
662.924627
 20
458.039568
 30
-200.0
 70
    64
  0
VERTEX
  8
I-STEEL
  5
23D
 10
632.613738
 20
475.539568
 30
-195.0
 70
    64
  0
VERTEX
  8
I-STEEL
  5
23E
 10
640.962637
 20
467.190669
 30
-195.558882
 70
    64
  0
VERTEX
  8
I-STEEL
  5
23F
 10
649.236879
 20
458.916427
 30
-197.230532
 70
    64
  0
VERTEX
  8
I-STEEL
  5
240
 10
657.362475
 20
450.790831
 30
-200.0
 70
    64
  0
VERTEX
  8
I-STEEL
  5
241
 10
632.613738
 20
475.539568
 30
-195.0
 70
    64
  0
VERTEX
  8
I-STEEL
  5
242
 10
638.517301
 20
465.314297
 30
-195.558882
 70
    64
  0
VERTEX
  8
I-STEEL
  5
243
 10
644.368074
 20
455.180461
 30
-197.230532
 70
    64
  0
VERTEX
  8
I-STEEL
  5
244
 10
650.113738
 20
445.228679
 30
-200.0
 70
    64
  0
VERTEX
  8
I-STEEL
  5
245
 10
632.613738
 20
475.539568
 30
-195.0
 70
    64
  0
VERTEX
  8
I-STEEL
  5
246
 10
635.669647
 20
464.13476
 30
-195.558882
 70
    64
  0
VERTEX
  8
I-STEEL
  5
247
 10
638.69823
 20
452.831935
 30
-197.230532
 70
    64
  0
VERTEX
  8
I-STEEL
  5
248
 10
641.672404
 20
441.732164
 30
-200.0
 70
    64
  0
VERTEX
  8
I-STEEL
  5
249
 10
632.613738
 20
475.539568
 30
-195.0
 70
    64
  0
VERTEX
  8
I-STEEL
  5
24A
 10
632.613738
 20
463.732442
 30
-195.558882
 70
    64
  0
VERTEX
  8
I-STEEL
  5
24B
 10
632.613738
 20
452.030896
 30
-197.230532
 70
    64
  0
VERTEX
  8
I-STEEL
  5
24C
 10
632.613738
 20
440.539568
 30
-200.0
 70
    64
  0
VERTEX
  8
I-STEEL
  5
24D
 10
632.613738
 20
475.539568
 30
-195.0
 70
    64
  0
VERTEX
  8
I-STEEL
  5
24E
 10
629.557829
 20
464.13476
 30
-195.558882
 70
    64
  0
VERTEX
  8
I-STEEL
  5
24F
 10
626.529246
 20
452.831935
 30
-197.230532
 70
    64
  0
VERTEX
  8
I-STEEL
  5
250
 10
623.555071
 20
441.732164
 30
-200.0
 70
    64
  0
VERTEX
  8
I-STEEL
  5
251
 10
632.613738
 20
475.539568
 30
-195.0
 70
    64
  0
VERTEX
  8
I-STEEL
  5
252
 10
626.710175
 20
465.314297
 30
-195.558882
 70
    64
  0
VERTEX
  8
I-STEEL
  5
253
 10
620.859402
 20
455.180461
 30
-197.230532
 70
    64
  0
VERTEX
  8
I-STEEL
  5
254
 10
615.113738
 20
445.228679
 30
-200.0
 70
    64
  0
VERTEX
  8
I-STEEL
  5
255
 10
632.613738
 20
475.539568
 30
-195.0
 70
    64
  0
VERTEX
  8
I-STEEL
  5
256
 10
624.264839
 20
467.190669
 30
-195.558882
 70
    64
  0
VERTEX
  8
I-STEEL
  5
257
 10
615.990597
 20
458.916427
 30
-197.230532
 70
    64
  0
VERTEX
  8
I-STEEL
  5
258
 10
607.865
 20
450.790831
 30
-200.0
 70
    64
  0
VERTEX
  8
I-STEEL
  5
259
 10
632.613738
 20
475.539568
 30
-195.0
 70
    64
  0
VERTEX
  8
I-STEEL
  5
25A
 10
622.388467
 20
469.636005
 30
-195.558882
 70
    64
  0
VERTEX
  8
I-STEEL
  5
25B
 10
612.254631
 20
463.785232
 30
-197.230532
 70
    64
  0
VERTEX
  8
I-STEEL
  5
25C
 10
602.302849
 20
458.039568
 30
-200.0
 70
    64
  0
VERTEX
  8
I-STEEL
  5
25D
 10
632.613738
 20
475.539568
 30
-195.0
 70
    64
  0
VERTEX
  8
I-STEEL
  5
25E
 10
621.20893
 20
472.483659
 30
-195.558882
 70
    64
  0
VERTEX
  8
I-STEEL
  5
25F
 10
609.906105
 20
469.455076
 30
-197.230532
 70
    64
  0
VERTEX
  8
I-STEEL
  5
260
 10
598.806334
 20
466.480902
 30
-200.0
 70
    64
  0
VERTEX
  8
I-STEEL
  5
261
 10
632.613738
 20
475.539568
 30
-195.0
 70
    64
  0
VERTEX
  8
I-STEEL
  5
262
 10
620.806612
 20
475.539568
 30
-195.558882
 70
    64
  0
VERTEX
  8
I-STEEL
  5
263
 10
609.105066
 20
475.539568
 30
-197.230532
 70
    64
  0
VERTEX
  8
I-STEEL
  5
264
 10
597.613738
 20
475.539568
 30
-200.0
 70
    64
  0
VERTEX
  8
I-STEEL
  5
265
 10
632.613738
 20
475.539568
 30
-195.0
 70
    64
  0
VERTEX
  8
I-STEEL
  5
266
 10
621.20893
 20
478.595477
 30
-195.558882
 70
    64
  0
VERTEX
  8
I-STEEL
  5
267
 10
609.906105
 20
481.62406
 30
-197.230532
 70
    64
  0
VERTEX
  8
I-STEEL
  5
268
 10
598.806334
 20
484.598235
 30
-200.0
 70
    64
  0
VERTEX
  8
I-STEEL
  5
269
 10
632.613738
 20
475.539568
 30
-195.0
 70
    64
  0
VERTEX
  8
I-STEEL
  5
26A
 10
622.388467
 20
481.443131
 30
-195.558882
 70
    64
  0
VERTEX
  8
I-STEEL
  5
26B
 10
612.254631
 20
487.293904
 30
-197.230532
 70
    64
  0
VERTEX
  8
I-STEEL
  5
26C
 10
602.302849
 20
493.039568
 30
-200.0
 70
    64
  0
VERTEX
  8
I-STEEL
  5
26D
 10
632.613738
 20
475.539568
 30
-195.0
 70
    64
  0
VERTEX
  8
I-STEEL
  5
26E
 10
624.264839
 20
483.888467
 30
-195.558882
 70
    64
  0
VERTEX
  8
I-STEEL
  5
26F
 10
615.990597
 20
492.162709
 30
-197.230532
 70
    64
  0
VERTEX
  8
I-STEEL
  5
270
 10
607.865
 20
500.288305
 30
-200.0
 70
    64
  0
VERTEX
  8
I-STEEL
  5
271
 10
632.613738
 20
475.539568
 30
-195.0
 70
    64
  0
VERTEX
  8
I-STEEL
  5
272
 10
626.710175
 20
485.764839
 30
-195.558882
 70
    64
  0
VERTEX
  8
I-STEEL
  5
273
 10
620.859402
 20
495.898675
 30
-197.230532
 70
    64
  0
VERTEX
  8
I-STEEL
  5
274
 10
615.113738
 20
505.850457
 30
-200.0
 70
    64
  0
VERTEX
  8
I-STEEL
  5
275
 10
632.613738
 20
475.539568
 30
-195.0
 70
    64
  0
VERTEX
  8
I-STEEL
  5
276
 10
629.557829
 20
486.944376
 30
-195.558882
 70
    64
  0
VERTEX
  8
I-STEEL
  5
277
 10
626.529246
 20
498.247201
 30
-197.230532
 70
    64
  0
VERTEX
  8
I-STEEL
  5
278
 10
623.555071
 20
509.346972
 30
-200.0
 70
    64
  0
VERTEX
  8
I-STEEL
  5
279
 10
632.613738
 20
475.539568
 30
-195.0
 70
    64
  0
VERTEX
  8
I-STEEL
  5
27A
 10
632.613738
 20
487.346694
 30
-195.558882
 70
    64
  0
VERTEX
  8
I-STEEL
  5
27B
 10
632.613738
 20
499.04824
 30
-197.230532
 70
    64
  0
VERTEX
  8
I-STEEL
  5
27C
 10
632.613738
 20
510.539568
 30
-200.0
 70
    64
  0
VERTEX
  8
I-STEEL
  5
27D
 10
632.613738
 20
475.539568
 30
-195.0
 70
    64
  0
VERTEX
  8
I-STEEL
  5
27E
 10
635.669647
 20
486.944376
 30
-195.558882
 70
    64
  0
VERTEX
  8
I-STEEL
  5
27F
 10
638.69823
 20
498.247201
 30
-197.230532
 70
    64
  0
VERTEX
  8
I-STEEL
  5
280
 10
641.672404
 20
509.346972
 30
-200.0
 70
    64
  0
VERTEX
  8
I-STEEL
  5
281
 10
632.613738
 20
475.539568
 30
-195.0
 70
    64
  0
VERTEX
  8
I-STEEL
  5
282
 10
638.517301
 20
485.764839
 30
-195.558882
 70
    64
  0
VERTEX
  8
I-STEEL
  5
283
 10
644.368074
 20
495.898675
 30
-197.230532
 70
    64
  0
VERTEX
  8
I-STEEL
  5
284
 10
650.113738
 20
505.850457
 30
-200.0
 70
    64
  0
VERTEX
  8
I-STEEL
  5
285
 10
632.613738
 20
475.539568
 30
-195.0
 70
    64
  0
VERTEX
  8
I-STEEL
  5
286
 10
640.962637
 20
483.888467
 30
-195.558882
 70
    64
  0
VERTEX
  8
I-STEEL
  5
287
 10
649.236879
 20
492.162709
 30
-197.230532
 70
    64
  0
VERTEX
  8
I-STEEL
  5
288
 10
657.362475
 20
500.288305
 30
-200.0
 70
    64
  0
VERTEX
  8
I-STEEL
  5
289
 10
632.613738
 20
475.539568
 30
-195.0
 70
    64
  0
VERTEX
  8
I-STEEL
  5
28A
 10
642.839009
 20
481.443131
 30
-195.558882
 70
    64
  0
VERTEX
  8
I-STEEL
  5
28B
 10
652.972845
 20
487.293904
 30
-197.230532
 70
    64
  0
VERTEX
  8
I-STEEL
  5
28C
 10
662.924627
 20
493.039568
 30
-200.0
 70
    64
  0
VERTEX
  8
I-STEEL
  5
28D
 10
632.613738
 20
475.539568
 30
-195.0
 70
    64
  0
VERTEX
  8
I-STEEL
  5
28E
 10
644.018546
 20
478.595477
 30
-195.558882
 70
    64
  0
VERTEX
  8
I-STEEL
  5
28F
 10
655.321371
 20
481.62406
 30
-197.230532
 70
    64
  0
VERTEX
  8
I-STEEL
  5
290
 10
666.421142
 20
484.598235
 30
-200.0
 70
    64
  0
SEQEND
  8
I-STEEL
  5
291
  0
POLYLINE
  8
I-SINK
  5
292
 66
     1
 10
0.0
 20
0.0
 30
0.0
 70
    17
 71
    24
 72
     4
  0
VERTEX
  8
I-SINK
  5
293
 10
726.389941
 20
475.539568
 30
-200.0
 70
    64
  0
VERTEX
  8
I-SINK
  5
294
 10
706.797873
 20
475.539568
 30
-200.0
 70
    64
  0
VERTEX
  8
I-SINK
  5
295
 10
687.205806
 20
475.539568
 30
-200.0
 70
    64
  0
VERTEX
  8
I-SINK
  5
296
 10
667.613738
 20
475.539568
 30
-200.0
 70
    64
  0
VERTEX
  8
I-SINK
  5
297
 10
723.194594
 20
451.268501
 30
-200.0
 70
    64
  0
VERTEX
  8
I-SINK
  5
298
 10
704.27011
 20
456.339301
 30
-200.0
 70
    64
  0
VERTEX
  8
I-SINK
  5
299
 10
685.345626
 20
461.410101
 30
-200.0
 70
    64
  0
VERTEX
  8
I-SINK
  5
29A
 10
666.421142
 20
466.480902
 30
-200.0
 70
    64
  0
VERTEX
  8
I-SINK
  5
29B
 10
713.826312
 20
428.651466
 30
-200.0
 70
    64
  0
VERTEX
  8
I-SINK
  5
29C
 10
696.859084
 20
438.4475
 30
-200.0
 70
    64
  0
VERTEX
  8
I-SINK
  5
29D
 10
679.891855
 20
448.243534
 30
-200.0
 70
    64
  0
VERTEX
  8
I-SINK
  5
29E
 10
662.924627
 20
458.039568
 30
-200.0
 70
    64
  0
VERTEX
  8
I-SINK
  5
29F
 10
698.923527
 20
409.229779
 30
-200.0
 70
    64
  0
VERTEX
  8
I-SINK
  5
2A0
 10
685.069843
 20
423.083463
 30
-200.0
 70
    64
  0
VERTEX
  8
I-SINK
  5
2A1
 10
671.216159
 20
436.937147
 30
-200.0
 70
    64
  0
VERTEX
  8
I-SINK
  5
2A2
 10
657.362475
 20
450.790831
 30
-200.0
 70
    64
  0
VERTEX
  8
I-SINK
  5
2A3
 10
679.501839
 20
394.326994
 30
-200.0
 70
    64
  0
VERTEX
  8
I-SINK
  5
2A4
 10
669.705806
 20
411.294222
 30
-200.0
 70
    64
  0
VERTEX
  8
I-SINK
  5
2A5
 10
659.909772
 20
428.261451
 30
-200.0
 70
    64
  0
VERTEX
  8
I-SINK
  5
2A6
 10
650.113738
 20
445.228679
 30
-200.0
 70
    64
  0
VERTEX
  8
I-SINK
  5
2A7
 10
656.884805
 20
384.958712
 30
-200.0
 70
    64
  0
VERTEX
  8
I-SINK
  5
2A8
 10
651.814005
 20
403.883196
 30
-200.0
 70
    64
  0
VERTEX
  8
I-SINK
  5
2A9
 10
646.743205
 20
422.80768
 30
-200.0
 70
    64
  0
VERTEX
  8
I-SINK
  5
2AA
 10
641.672404
 20
441.732164
 30
-200.0
 70
    64
  0
VERTEX
  8
I-SINK
  5
2AB
 10
632.613738
 20
381.763365
 30
-200.0
 70
    64
  0
VERTEX
  8
I-SINK
  5
2AC
 10
632.613738
 20
401.355433
 30
-200.0
 70
    64
  0
VERTEX
  8
I-SINK
  5
2AD
 10
632.613738
 20
420.9475
 30
-200.0
 70
    64
  0
VERTEX
  8
I-SINK
  5
2AE
 10
632.613738
 20
440.539568
 30
-200.0
 70
    64
  0
VERTEX
  8
I-SINK
  5
2AF
 10
608.34267
 20
384.958712
 30
-200.0
 70
    64
  0
VERTEX
  8
I-SINK
  5
2B0
 10
613.413471
 20
403.883196
 30
-200.0
 70
    64
  0
VERTEX
  8
I-SINK
  5
2B1
 10
618.484271
 20
422.80768
 30
-200.0
 70
    64
  0
VERTEX
  8
I-SINK
  5
2B2
 10
623.555071
 20
441.732164
 30
-200.0
 70
    64
  0
VERTEX
  8
I-SINK
  5
2B3
 10
585.725636
 20
394.326994
 30
-200.0
 70
    64
  0
VERTEX
  8
I-SINK
  5
2B4
 10
595.52167
 20
411.294222
 30
-200.0
 70
    64
  0
VERTEX
  8
I-SINK
  5
2B5
 10
605.317704
 20
428.261451
 30
-200.0
 70
    64
  0
VERTEX
  8
I-SINK
  5
2B6
 10
615.113738
 20
445.228679
 30
-200.0
 70
    64
  0
VERTEX
  8
I-SINK
  5
2B7
 10
566.303949
 20
409.229779
 30
-200.0
 70
    64
  0
VERTEX
  8
I-SINK
  5
2B8
 10
580.157633
 20
423.083463
 30
-200.0
 70
    64
  0
VERTEX
  8
I-SINK
  5
2B9
 10
594.011317
 20
436.937147
 30
-200.0
 70
    64
  0
VERTEX
  8
I-SINK
  5
2BA
 10
607.865
 20
450.790831
 30
-200.0
 70
    64
  0
VERTEX
  8
I-SINK
  5
2BB
 10
551.401164
 20
428.651466
 30
-200.0
 70
    64
  0
VERTEX
  8
I-SINK
  5
2BC
 10
568.368392
 20
438.4475
 30
-200.0
 70
    64
  0
VERTEX
  8
I-SINK
  5
2BD
 10
585.33562
 20
448.243534
 30
-200.0
 70
    64
  0
VERTEX
  8
I-SINK
  5
2BE
 10
602.302849
 20
458.039568
 30
-200.0
 70
    64
  0
VERTEX
  8
I-SINK
  5
2BF
 10
542.032881
 20
451.268501
 30
-200.0
 70
    64
  0
VERTEX
  8
I-SINK
  5
2C0
 10
560.957365
 20
456.339301
 30
-200.0
 70
    64
  0
VERTEX
  8
I-SINK
  5
2C1
 10
579.88185
 20
461.410101
 30
-200.0
 70
    64
  0
VERTEX
  8
I-SINK
  5
2C2
 10
598.806334
 20
466.480902
 30
-200.0
 70
    64
  0
VERTEX
  8
I-SINK
  5
2C3
 10
538.837535
 20
475.539568
 30
-200.0
 70
    64
  0
VERTEX
  8
I-SINK
  5
2C4
 10
558.429602
 20
475.539568
 30
-200.0
 70
    64
  0
VERTEX
  8
I-SINK
  5
2C5
 10
578.02167
 20
475.539568
 30
-200.0
 70
    64
  0
VERTEX
  8
I-SINK
  5
2C6
 10
597.613738
 20
475.539568
 30
-200.0
 70
    64
  0
VERTEX
  8
I-SINK
  5
2C7
 10
542.032881
 20
499.810635
 30
-200.0
 70
    64
  0
VERTEX
  8
I-SINK
  5
2C8
 10
560.957365
 20
494.739835
 30
-200.0
 70
    64
  0
VERTEX
  8
I-SINK
  5
2C9
 10
579.88185
 20
489.669035
 30
-200.0
 70
    64
  0
VERTEX
  8
I-SINK
  5
2CA
 10
598.806334
 20
484.598235
 30
-200.0
 70
    64
  0
VERTEX
  8
I-SINK
  5
2CB
 10
551.401164
 20
522.42767
 30
-200.0
 70
    64
  0
VERTEX
  8
I-SINK
  5
2CC
 10
568.368392
 20
512.631636
 30
-200.0
 70
    64
  0
VERTEX
  8
I-SINK
  5
2CD
 10
585.33562
 20
502.835602
 30
-200.0
 70
    64
  0
VERTEX
  8
I-SINK
  5
2CE
 10
602.302849
 20
493.039568
 30
-200.0
 70
    64
  0
VERTEX
  8
I-SINK
  5
2CF
 10
566.303949
 20
541.849357
 30
-200.0
 70
    64
  0
VERTEX
  8
I-SINK
  5
2D0
 10
580.157633
 20
527.995673
 30
-200.0
 70
    64
  0
VERTEX
  8
I-SINK
  5
2D1
 10
594.011317
 20
514.141989
 30
-200.0
 70
    64
  0
VERTEX
  8
I-SINK
  5
2D2
 10
607.865
 20
500.288305
 30
-200.0
 70
    64
  0
VERTEX
  8
I-SINK
  5
2D3
 10
585.725636
 20
556.752142
 30
-200.0
 70
    64
  0
VERTEX
  8
I-SINK
  5
2D4
 10
595.52167
 20
539.784914
 30
-200.0
 70
    64
  0
VERTEX
  8
I-SINK
  5
2D5
 10
605.317704
 20
522.817686
 30
-200.0
 70
    64
  0
VERTEX
  8
I-SINK
  5
2D6
 10
615.113738
 20
505.850457
 30
-200.0
 70
    64
  0
VERTEX
  8
I-SINK
  5
2D7
 10
608.34267
 20
566.120425
 30
-200.0
 70
    64
  0
VERTEX
  8
I-SINK
  5
2D8
 10
613.413471
 20
547.19594
 30
-200.0
 70
    64
  0
VERTEX
  8
I-SINK
  5
2D9
 10
618.484271
 20
528.271456
 30
-200.0
 70
    64
  0
VERTEX
  8
I-SINK
  5
2DA
 10
623.555071
 20
509.346972
 30
-200.0
 70
    64
  0
VERTEX
  8
I-SINK
  5
2DB
 10
632.613738
 20
569.315771
 30
-200.0
 70
    64
  0
VERTEX
  8
I-SINK
  5
2DC
 10
632.613738
 20
549.723704
 30
-200.0
 70
    64
  0
VERTEX
  8
I-SINK
  5
2DD
 10
632.613738
 20
530.131636
 30
-200.0
 70
    64
  0
VERTEX
  8
I-SINK
  5
2DE
 10
632.613738
 20
510.539568
 30
-200.0
 70
    64
  0
VERTEX
  8
I-SINK
  5
2DF
 10
656.884805
 20
566.120425
 30
-200.0
 70
    64
  0
VERTEX
  8
I-SINK
  5
2E0
 10
651.814005
 20
547.19594
 30
-200.0
 70
    64
  0
VERTEX
  8
I-SINK
  5
2E1
 10
646.743205
 20
528.271456
 30
-200.0
 70
    64
  0
VERTEX
  8
I-SINK
  5
2E2
 10
641.672404
 20
509.346972
 30
-200.0
 70
    64
  0
VERTEX
  8
I-SINK
  5
2E3
 10
679.501839
 20
556.752142
 30
-200.0
 70
    64
  0
VERTEX
  8
I-SINK
  5
2E4
 10
669.705806
 20
539.784914
 30
-200.0
 70
    64
  0
VERTEX
  8
I-SINK
  5
2E5
 10
659.909772
 20
522.817686
 30
-200.0
 70
    64
  0
VERTEX
  8
I-SINK
  5
2E6
 10
650.113738
 20
505.850457
 30
-200.0
 70
    64
  0
VERTEX
  8
I-SINK
  5
2E7
 10
698.923527
 20
541.849357
 30
-200.0
 70
    64
  0
VERTEX
  8
I-SINK
  5
2E8
 10
685.069843
 20
527.995673
 30
-200.0
 70
    64
  0
VERTEX
  8
I-SINK
  5
2E9
 10
671.216159
 20
514.141989
 30
-200.0
 70
    64
  0
VERTEX
  8
I-SINK
  5
2EA
 10
657.362475
 20
500.288305
 30
-200.0
 70
    64
  0
VERTEX
  8
I-SINK
  5
2EB
 10
713.826312
 20
522.42767
 30
-200.0
 70
    64
  0
VERTEX
  8
I-SINK
  5
2EC
 10
696.859084
 20
512.631636
 30
-200.0
 70
    64
  0
VERTEX
  8
I-SINK
  5
2ED
 10
679.891855
 20
502.835602
 30
-200.0
 70
    64
  0
VERTEX
  8
I-SINK
  5
2EE
 10
662.924627
 20
493.039568
 30
-200.0
 70
    64
  0
VERTEX
  8
I-SINK
  5
2EF
 10
723.194594
 20
499.810635
 30
-200.0
 70
    64
  0
VERTEX
  8
I-SINK
  5
2F0
 10
704.27011
 20
494.739835
 30
-200.0
 70
    64
  0
VERTEX
  8
I-SINK
  5
2F1
 10
685.345626
 20
489.669035
 30
-200.0
 70
    64
  0
VERTEX
  8
I-SINK
  5
2F2
 10
666.421142
 20
484.598235
 30
-200.0
 70
    64
  0
SEQEND
  8
I-SINK
  5
2F3
  0
POLYLINE
  8
I-SINK
  5
2F4
 66
     1
 10
0.0
 20
0.0
 30
0.0
 70
    17
 71
    24
 72
     4
  0
VERTEX
  8
I-SINK
  5
2F5
 10
726.389941
 20
475.539568
 30
-200.0
 70
    64
  0
VERTEX
  8
I-SINK
  5
2F6
 10
735.234847
 20
475.539568
 30
-197.937883
 70
    64
  0
VERTEX
  8
I-SINK
  5
2F7
 10
742.25583
 20
475.539568
 30
-192.176764
 70
    64
  0
VERTEX
  8
I-SINK
  5
2F8
 10
746.00508
 20
475.539568
 30
-183.904653
 70
    64
  0
VERTEX
  8
I-SINK
  5
2F9
 10
723.194594
 20
451.268501
 30
-200.0
 70
    64
  0
VERTEX
  8
I-SINK
  5
2FA
 10
731.738118
 20
448.979271
 30
-197.937883
 70
    64
  0
VERTEX
  8
I-SINK
  5
2FB
 10
738.519866
 20
447.162107
 30
-192.176764
 70
    64
  0
VERTEX
  8
I-SINK
  5
2FC
 10
742.141364
 20
446.191729
 30
-183.904653
 70
    64
  0
VERTEX
  8
I-SINK
  5
2FD
 10
713.826312
 20
428.651466
 30
-200.0
 70
    64
  0
VERTEX
  8
I-SINK
  5
2FE
 10
721.486225
 20
424.229013
 30
-197.937883
 70
    64
  0
VERTEX
  8
I-SINK
  5
2FF
 10
727.566575
 20
420.718522
 30
-192.176764
 70
    64
  0
VERTEX
  8
I-SINK
  5
300
 10
730.813521
 20
418.843897
 30
-183.904653
 70
    64
  0
VERTEX
  8
I-SINK
  5
301
 10
698.923527
 20
409.229779
 30
-200.0
 70
    64
  0
VERTEX
  8
I-SINK
  5
302
 10
705.17782
 20
402.975486
 30
-197.937883
 70
    64
  0
VERTEX
  8
I-SINK
  5
303
 10
710.142405
 20
398.010901
 30
-192.176764
 70
    64
  0
VERTEX
  8
I-SINK
  5
304
 10
712.793525
 20
395.359781
 30
-183.904653
 70
    64
  0
VERTEX
  8
I-SINK
  5
305
 10
679.501839
 20
394.326994
 30
-200.0
 70
    64
  0
VERTEX
  8
I-SINK
  5
306
 10
683.924292
 20
386.667081
 30
-197.937883
 70
    64
  0
VERTEX
  8
I-SINK
  5
307
 10
687.434784
 20
380.586731
 30
-192.176764
 70
    64
  0
VERTEX
  8
I-SINK
  5
308
 10
689.309409
 20
377.339785
 30
-183.904653
 70
    64
  0
VERTEX
  8
I-SINK
  5
309
 10
656.884805
 20
384.958712
 30
-200.0
 70
    64
  0
VERTEX
  8
I-SINK
  5
30A
 10
659.174035
 20
376.415188
 30
-197.937883
 70
    64
  0
VERTEX
  8
I-SINK
  5
30B
 10
660.991199
 20
369.63344
 30
-192.176764
 70
    64
  0
VERTEX
  8
I-SINK
  5
30C
 10
661.961577
 20
366.011942
 30
-183.904653
 70
    64
  0
VERTEX
  8
I-SINK
  5
30D
 10
632.613738
 20
381.763365
 30
-200.0
 70
    64
  0
VERTEX
  8
I-SINK
  5
30E
 10
632.613738
 20
372.918459
 30
-197.937883
 70
    64
  0
VERTEX
  8
I-SINK
  5
30F
 10
632.613738
 20
365.897476
 30
-192.176764
 70
    64
  0
VERTEX
  8
I-SINK
  5
310
 10
632.613738
 20
362.148226
 30
-183.904653
 70
    64
  0
VERTEX
  8
I-SINK
  5
311
 10
608.34267
 20
384.958712
 30
-200.0
 70
    64
  0
VERTEX
  8
I-SINK
  5
312
 10
606.05344
 20
376.415188
 30
-197.937883
 70
    64
  0
VERTEX
  8
I-SINK
  5
313
 10
604.236276
 20
369.63344
 30
-192.176764
 70
    64
  0
VERTEX
  8
I-SINK
  5
314
 10
603.265899
 20
366.011942
 30
-183.904653
 70
    64
  0
VERTEX
  8
I-SINK
  5
315
 10
585.725636
 20
394.326994
 30
-200.0
 70
    64
  0
VERTEX
  8
I-SINK
  5
316
 10
581.303183
 20
386.667081
 30
-197.937883
 70
    64
  0
VERTEX
  8
I-SINK
  5
317
 10
577.792692
 20
380.586731
 30
-192.176764
 70
    64
  0
VERTEX
  8
I-SINK
  5
318
 10
575.918067
 20
377.339785
 30
-183.904653
 70
    64
  0
VERTEX
  8
I-SINK
  5
319
 10
566.303949
 20
409.229779
 30
-200.0
 70
    64
  0
VERTEX
  8
I-SINK
  5
31A
 10
560.049656
 20
402.975486
 30
-197.937883
 70
    64
  0
VERTEX
  8
I-SINK
  5
31B
 10
555.085071
 20
398.010901
 30
-192.176764
 70
    64
  0
VERTEX
  8
I-SINK
  5
31C
 10
552.433951
 20
395.359781
 30
-183.904653
 70
    64
  0
VERTEX
  8
I-SINK
  5
31D
 10
551.401164
 20
428.651466
 30
-200.0
 70
    64
  0
VERTEX
  8
I-SINK
  5
31E
 10
543.74125
 20
424.229013
 30
-197.937883
 70
    64
  0
VERTEX
  8
I-SINK
  5
31F
 10
537.660901
 20
420.718522
 30
-192.176764
 70
    64
  0
VERTEX
  8
I-SINK
  5
320
 10
534.413955
 20
418.843897
 30
-183.904653
 70
    64
  0
VERTEX
  8
I-SINK
  5
321
 10
542.032881
 20
451.268501
 30
-200.0
 70
    64
  0
VERTEX
  8
I-SINK
  5
322
 10
533.489358
 20
448.979271
 30
-197.937883
 70
    64
  0
VERTEX
  8
I-SINK
  5
323
 10
526.70761
 20
447.162107
 30
-192.176764
 70
    64
  0
VERTEX
  8
I-SINK
  5
324
 10
523.086112
 20
446.191729
 30
-183.904653
 70
    64
  0
VERTEX
  8
I-SINK
  5
325
 10
538.837535
 20
475.539568
 30
-200.0
 70
    64
  0
VERTEX
  8
I-SINK
  5
326
 10
529.992629
 20
475.539568
 30
-197.937883
 70
    64
  0
VERTEX
  8
I-SINK
  5
327
 10
522.971646
 20
475.539568
 30
-192.176764
 70
    64
  0
VERTEX
  8
I-SINK
  5
328
 10
519.222396
 20
475.539568
 30
-183.904653
 70
    64
  0
VERTEX
  8
I-SINK
  5
329
 10
542.032881
 20
499.810635
 30
-200.0
 70
    64
  0
VERTEX
  8
I-SINK
  5
32A
 10
533.489358
 20
502.099866
 30
-197.937883
 70
    64
  0
VERTEX
  8
I-SINK
  5
32B
 10
526.70761
 20
503.91703
 30
-192.176764
 70
    64
  0
VERTEX
  8
I-SINK
  5
32C
 10
523.086112
 20
504.887407
 30
-183.904653
 70
    64
  0
VERTEX
  8
I-SINK
  5
32D
 10
551.401164
 20
522.42767
 30
-200.0
 70
    64
  0
VERTEX
  8
I-SINK
  5
32E
 10
543.74125
 20
526.850123
 30
-197.937883
 70
    64
  0
VERTEX
  8
I-SINK
  5
32F
 10
537.660901
 20
530.360614
 30
-192.176764
 70
    64
  0
VERTEX
  8
I-SINK
  5
330
 10
534.413955
 20
532.235239
 30
-183.904653
 70
    64
  0
VERTEX
  8
I-SINK
  5
331
 10
566.303949
 20
541.849357
 30
-200.0
 70
    64
  0
VERTEX
  8
I-SINK
  5
332
 10
560.049656
 20
548.10365
 30
-197.937883
 70
    64
  0
VERTEX
  8
I-SINK
  5
333
 10
555.085071
 20
553.068235
 30
-192.176764
 70
    64
  0
VERTEX
  8
I-SINK
  5
334
 10
552.433951
 20
555.719355
 30
-183.904653
 70
    64
  0
VERTEX
  8
I-SINK
  5
335
 10
585.725636
 20
556.752142
 30
-200.0
 70
    64
  0
VERTEX
  8
I-SINK
  5
336
 10
581.303183
 20
564.412056
 30
-197.937883
 70
    64
  0
VERTEX
  8
I-SINK
  5
337
 10
577.792692
 20
570.492405
 30
-192.176764
 70
    64
  0
VERTEX
  8
I-SINK
  5
338
 10
575.918067
 20
573.739351
 30
-183.904653
 70
    64
  0
VERTEX
  8
I-SINK
  5
339
 10
608.34267
 20
566.120425
 30
-200.0
 70
    64
  0
VERTEX
  8
I-SINK
  5
33A
 10
606.05344
 20
574.663948
 30
-197.937883
 70
    64
  0
VERTEX
  8
I-SINK
  5
33B
 10
604.236276
 20
581.445696
 30
-192.176764
 70
    64
  0
VERTEX
  8
I-SINK
  5
33C
 10
603.265899
 20
585.067194
 30
-183.904653
 70
    64
  0
VERTEX
  8
I-SINK
  5
33D
 10
632.613738
 20
569.315771
 30
-200.0
 70
    64
  0
VERTEX
  8
I-SINK
  5
33E
 10
632.613738
 20
578.160677
 30
-197.937883
 70
    64
  0
VERTEX
  8
I-SINK
  5
33F
 10
632.613738
 20
585.18166
 30
-192.176764
 70
    64
  0
VERTEX
  8
I-SINK
  5
340
 10
632.613738
 20
588.93091
 30
-183.904653
 70
    64
  0
VERTEX
  8
I-SINK
  5
341
 10
656.884805
 20
566.120425
 30
-200.0
 70
    64
  0
VERTEX
  8
I-SINK
  5
342
 10
659.174035
 20
574.663948
 30
-197.937883
 70
    64
  0
VERTEX
  8
I-SINK
  5
343
 10
660.991199
 20
581.445696
 30
-192.176764
 70
    64
  0
VERTEX
  8
I-SINK
  5
344
 10
661.961577
 20
585.067194
 30
-183.904653
 70
    64
  0
VERTEX
  8
I-SINK
  5
345
 10
679.501839
 20
556.752142
 30
-200.0
 70
    64
  0
VERTEX
  8
I-SINK
  5
346
 10
683.924292
 20
564.412056
 30
-197.937883
 70
    64
  0
VERTEX
  8
I-SINK
  5
347
 10
687.434784
 20
570.492405
 30
-192.176764
 70
    64
  0
VERTEX
  8
I-SINK
  5
348
 10
689.309409
 20
573.739351
 30
-183.904653
 70
    64
  0
VERTEX
  8
I-SINK
  5
349
 10
698.923527
 20
541.849357
 30
-200.0
 70
    64
  0
VERTEX
  8
I-SINK
  5
34A
 10
705.17782
 20
548.10365
 30
-197.937883
 70
    64
  0
VERTEX
  8
I-SINK
  5
34B
 10
710.142405
 20
553.068235
 30
-192.176764
 70
    64
  0
VERTEX
  8
I-SINK
  5
34C
 10
712.793525
 20
555.719355
 30
-183.904653
 70
    64
  0
VERTEX
  8
I-SINK
  5
34D
 10
713.826312
 20
522.42767
 30
-200.0
 70
    64
  0
VERTEX
  8
I-SINK
  5
34E
 10
721.486225
 20
526.850123
 30
-197.937883
 70
    64
  0
VERTEX
  8
I-SINK
  5
34F
 10
727.566575
 20
530.360614
 30
-192.176764
 70
    64
  0
VERTEX
  8
I-SINK
  5
350
 10
730.813521
 20
532.235239
 30
-183.904653
 70
    64
  0
VERTEX
  8
I-SINK
  5
351
 10
723.194594
 20
499.810635
 30
-200.0
 70
    64
  0
VERTEX
  8
I-SINK
  5
352
 10
731.738118
 20
502.099866
 30
-197.937883
 70
    64
  0
VERTEX
  8
I-SINK
  5
353
 10
738.519866
 20
503.91703
 30
-192.176764
 70
    64
  0
VERTEX
  8
I-SINK
  5
354
 10
742.141364
 20
504.887407
 30
-183.904653
 70
    64
  0
SEQEND
  8
I-SINK
  5
355
  0
POLYLINE
  8
I-SINK
  5
356
 66
     1
 10
0.0
 20
0.0
 30
0.0
 70
    17
 71
    24
 72
     4
  0
VERTEX
  8
I-SINK
  5
357
 10
726.389941
 20
475.539568
 30
-220.0
 70
    64
  0
VERTEX
  8
I-SINK
  5
358
 10
711.797873
 20
475.539568
 30
-220.0
 70
    64
  0
VERTEX
  8
I-SINK
  5
359
 10
697.205806
 20
475.539568
 30
-220.0
 70
    64
  0
VERTEX
  8
I-SINK
  5
35A
 10
682.613738
 20
475.539568
 30
-220.0
 70
    64
  0
VERTEX
  8
I-SINK
  5
35B
 10
723.194594
 20
499.810635
 30
-220.0
 70
    64
  0
VERTEX
  8
I-SINK
  5
35C
 10
709.099739
 20
496.03393
 30
-220.0
 70
    64
  0
VERTEX
  8
I-SINK
  5
35D
 10
695.004884
 20
492.257225
 30
-220.0
 70
    64
  0
VERTEX
  8
I-SINK
  5
35E
 10
680.910029
 20
488.48052
 30
-220.0
 70
    64
  0
VERTEX
  8
I-SINK
  5
35F
 10
713.826312
 20
522.42767
 30
-220.0
 70
    64
  0
VERTEX
  8
I-SINK
  5
360
 10
701.189211
 20
515.131636
 30
-220.0
 70
    64
  0
VERTEX
  8
I-SINK
  5
361
 10
688.552109
 20
507.835602
 30
-220.0
 70
    64
  0
VERTEX
  8
I-SINK
  5
362
 10
675.915008
 20
500.539568
 30
-220.0
 70
    64
  0
VERTEX
  8
I-SINK
  5
363
 10
698.923527
 20
541.849357
 30
-220.0
 70
    64
  0
VERTEX
  8
I-SINK
  5
364
 10
688.605377
 20
531.531207
 30
-220.0
 70
    64
  0
VERTEX
  8
I-SINK
  5
365
 10
678.287227
 20
521.213057
 30
-220.0
 70
    64
  0
VERTEX
  8
I-SINK
  5
366
 10
667.969077
 20
510.894907
 30
-220.0
 70
    64
  0
VERTEX
  8
I-SINK
  5
367
 10
679.501839
 20
556.752142
 30
-220.0
 70
    64
  0
VERTEX
  8
I-SINK
  5
368
 10
672.205806
 20
544.115041
 30
-220.0
 70
    64
  0
VERTEX
  8
I-SINK
  5
369
 10
664.909772
 20
531.47794
 30
-220.0
 70
    64
  0
VERTEX
  8
I-SINK
  5
36A
 10
657.613738
 20
518.840838
 30
-220.0
 70
    64
  0
VERTEX
  8
I-SINK
  5
36B
 10
656.884805
 20
566.120425
 30
-220.0
 70
    64
  0
VERTEX
  8
I-SINK
  5
36C
 10
653.1081
 20
552.02557
 30
-220.0
 70
    64
  0
VERTEX
  8
I-SINK
  5
36D
 10
649.331395
 20
537.930714
 30
-220.0
 70
    64
  0
VERTEX
  8
I-SINK
  5
36E
 10
645.55469
 20
523.835859
 30
-220.0
 70
    64
  0
VERTEX
  8
I-SINK
  5
36F
 10
632.613738
 20
569.315771
 30
-220.0
 70
    64
  0
VERTEX
  8
I-SINK
  5
370
 10
632.613738
 20
554.723704
 30
-220.0
 70
    64
  0
VERTEX
  8
I-SINK
  5
371
 10
632.613738
 20
540.131636
 30
-220.0
 70
    64
  0
VERTEX
  8
I-SINK
  5
372
 10
632.613738
 20
525.539568
 30
-220.0
 70
    64
  0
VERTEX
  8
I-SINK
  5
373
 10
608.34267
 20
566.120425
 30
-220.0
 70
    64
  0
VERTEX
  8
I-SINK
  5
374
 10
612.119375
 20
552.02557
 30
-220.0
 70
    64
  0
VERTEX
  8
I-SINK
  5
375
 10
615.896081
 20
537.930714
 30
-220.0
 70
    64
  0
VERTEX
  8
I-SINK
  5
376
 10
619.672786
 20
523.835859
 30
-220.0
 70
    64
  0
VERTEX
  8
I-SINK
  5
377
 10
585.725636
 20
556.752142
 30
-220.0
 70
    64
  0
VERTEX
  8
I-SINK
  5
378
 10
593.02167
 20
544.115041
 30
-220.0
 70
    64
  0
VERTEX
  8
I-SINK
  5
379
 10
600.317704
 20
531.47794
 30
-220.0
 70
    64
  0
VERTEX
  8
I-SINK
  5
37A
 10
607.613738
 20
518.840838
 30
-220.0
 70
    64
  0
VERTEX
  8
I-SINK
  5
37B
 10
566.303949
 20
541.849357
 30
-220.0
 70
    64
  0
VERTEX
  8
I-SINK
  5
37C
 10
576.622099
 20
531.531207
 30
-220.0
 70
    64
  0
VERTEX
  8
I-SINK
  5
37D
 10
586.940249
 20
521.213057
 30
-220.0
 70
    64
  0
VERTEX
  8
I-SINK
  5
37E
 10
597.258399
 20
510.894907
 30
-220.0
 70
    64
  0
VERTEX
  8
I-SINK
  5
37F
 10
551.401164
 20
522.42767
 30
-220.0
 70
    64
  0
VERTEX
  8
I-SINK
  5
380
 10
564.038265
 20
515.131636
 30
-220.0
 70
    64
  0
VERTEX
  8
I-SINK
  5
381
 10
576.675366
 20
507.835602
 30
-220.0
 70
    64
  0
VERTEX
  8
I-SINK
  5
382
 10
589.312468
 20
500.539568
 30
-220.0
 70
    64
  0
VERTEX
  8
I-SINK
  5
383
 10
542.032881
 20
499.810635
 30
-220.0
 70
    64
  0
VERTEX
  8
I-SINK
  5
384
 10
556.127736
 20
496.03393
 30
-220.0
 70
    64
  0
VERTEX
  8
I-SINK
  5
385
 10
570.222591
 20
492.257225
 30
-220.0
 70
    64
  0
VERTEX
  8
I-SINK
  5
386
 10
584.317447
 20
488.48052
 30
-220.0
 70
    64
  0
VERTEX
  8
I-SINK
  5
387
 10
538.837535
 20
475.539568
 30
-220.0
 70
    64
  0
VERTEX
  8
I-SINK
  5
388
 10
553.429602
 20
475.539568
 30
-220.0
 70
    64
  0
VERTEX
  8
I-SINK
  5
389
 10
568.02167
 20
475.539568
 30
-220.0
 70
    64
  0
VERTEX
  8
I-SINK
  5
38A
 10
582.613738
 20
475.539568
 30
-220.0
 70
    64
  0
VERTEX
  8
I-SINK
  5
38B
 10
542.032881
 20
451.268501
 30
-220.0
 70
    64
  0
VERTEX
  8
I-SINK
  5
38C
 10
556.127736
 20
455.045206
 30
-220.0
 70
    64
  0
VERTEX
  8
I-SINK
  5
38D
 10
570.222591
 20
458.821911
 30
-220.0
 70
    64
  0
VERTEX
  8
I-SINK
  5
38E
 10
584.317447
 20
462.598616
 30
-220.0
 70
    64
  0
VERTEX
  8
I-SINK
  5
38F
 10
551.401164
 20
428.651466
 30
-220.0
 70
    64
  0
VERTEX
  8
I-SINK
  5
390
 10
564.038265
 20
435.9475
 30
-220.0
 70
    64
  0
VERTEX
  8
I-SINK
  5
391
 10
576.675366
 20
443.243534
 30
-220.0
 70
    64
  0
VERTEX
  8
I-SINK
  5
392
 10
589.312468
 20
450.539568
 30
-220.0
 70
    64
  0
VERTEX
  8
I-SINK
  5
393
 10
566.303949
 20
409.229779
 30
-220.0
 70
    64
  0
VERTEX
  8
I-SINK
  5
394
 10
576.622099
 20
419.547929
 30
-220.0
 70
    64
  0
VERTEX
  8
I-SINK
  5
395
 10
586.940249
 20
429.866079
 30
-220.0
 70
    64
  0
VERTEX
  8
I-SINK
  5
396
 10
597.258399
 20
440.184229
 30
-220.0
 70
    64
  0
VERTEX
  8
I-SINK
  5
397
 10
585.725636
 20
394.326994
 30
-220.0
 70
    64
  0
VERTEX
  8
I-SINK
  5
398
 10
593.02167
 20
406.964095
 30
-220.0
 70
    64
  0
VERTEX
  8
I-SINK
  5
399
 10
600.317704
 20
419.601197
 30
-220.0
 70
    64
  0
VERTEX
  8
I-SINK
  5
39A
 10
607.613738
 20
432.238298
 30
-220.0
 70
    64
  0
VERTEX
  8
I-SINK
  5
39B
 10
608.34267
 20
384.958712
 30
-220.0
 70
    64
  0
VERTEX
  8
I-SINK
  5
39C
 10
612.119375
 20
399.053567
 30
-220.0
 70
    64
  0
VERTEX
  8
I-SINK
  5
39D
 10
615.896081
 20
413.148422
 30
-220.0
 70
    64
  0
VERTEX
  8
I-SINK
  5
39E
 10
619.672786
 20
427.243277
 30
-220.0
 70
    64
  0
VERTEX
  8
I-SINK
  5
39F
 10
632.613738
 20
381.763365
 30
-220.0
 70
    64
  0
VERTEX
  8
I-SINK
  5
3A0
 10
632.613738
 20
396.355433
 30
-220.0
 70
    64
  0
VERTEX
  8
I-SINK
  5
3A1
 10
632.613738
 20
410.9475
 30
-220.0
 70
    64
  0
VERTEX
  8
I-SINK
  5
3A2
 10
632.613738
 20
425.539568
 30
-220.0
 70
    64
  0
VERTEX
  8
I-SINK
  5
3A3
 10
656.884805
 20
384.958712
 30
-220.0
 70
    64
  0
VERTEX
  8
I-SINK
  5
3A4
 10
653.1081
 20
399.053567
 30
-220.0
 70
    64
  0
VERTEX
  8
I-SINK
  5
3A5
 10
649.331395
 20
413.148422
 30
-220.0
 70
    64
  0
VERTEX
  8
I-SINK
  5
3A6
 10
645.55469
 20
427.243277
 30
-220.0
 70
    64
  0
VERTEX
  8
I-SINK
  5
3A7
 10
679.501839
 20
394.326994
 30
-220.0
 70
    64
  0
VERTEX
  8
I-SINK
  5
3A8
 10
672.205806
 20
406.964095
 30
-220.0
 70
    64
  0
VERTEX
  8
I-SINK
  5
3A9
 10
664.909772
 20
419.601197
 30
-220.0
 70
    64
  0
VERTEX
  8
I-SINK
  5
3AA
 10
657.613738
 20
432.238298
 30
-220.0
 70
    64
  0
VERTEX
  8
I-SINK
  5
3AB
 10
698.923527
 20
409.229779
 30
-220.0
 70
    64
  0
VERTEX
  8
I-SINK
  5
3AC
 10
688.605377
 20
419.547929
 30
-220.0
 70
    64
  0
VERTEX
  8
I-SINK
  5
3AD
 10
678.287227
 20
429.866079
 30
-220.0
 70
    64
  0
VERTEX
  8
I-SINK
  5
3AE
 10
667.969077
 20
440.184229
 30
-220.0
 70
    64
  0
VERTEX
  8
I-SINK
  5
3AF
 10
713.826312
 20
428.651466
 30
-220.0
 70
    64
  0
VERTEX
  8
I-SINK
  5
3B0
 10
701.189211
 20
435.9475
 30
-220.0
 70
    64
  0
VERTEX
  8
I-SINK
  5
3B1
 10
688.552109
 20
443.243534
 30
-220.0
 70
    64
  0
VERTEX
  8
I-SINK
  5
3B2
 10
675.915008
 20
450.539568
 30
-220.0
 70
    64
  0
VERTEX
  8
I-SINK
  5
3B3
 10
723.194594
 20
451.268501
 30
-220.0
 70
    64
  0
VERTEX
  8
I-SINK
  5
3B4
 10
709.099739
 20
455.045206
 30
-220.0
 70
    64
  0
VERTEX
  8
I-SINK
  5
3B5
 10
695.004884
 20
458.821911
 30
-220.0
 70
    64
  0
VERTEX
  8
I-SINK
  5
3B6
 10
680.910029
 20
462.598616
 30
-220.0
 70
    64
  0
SEQEND
  8
I-SINK
  5
3B7
  0
POLYLINE
  8
I-SINK
  5
3B8
 66
     1
 10
0.0
 20
0.0
 30
0.0
 70
    17
 71
    24
 72
     4
  0
VERTEX
  8
I-SINK
  5
3B9
 10
726.389941
 20
475.539568
 30
-220.0
 70
    64
  0
VERTEX
  8
I-SINK
  5
3BA
 10
744.079753
 20
475.539568
 30
-215.875766
 70
    64
  0
VERTEX
  8
I-SINK
  5
3BB
 10
758.121718
 20
475.539568
 30
-204.353528
 70
    64
  0
VERTEX
  8
I-SINK
  5
3BC
 10
765.620219
 20
475.539568
 30
-187.809307
 70
    64
  0
VERTEX
  8
I-SINK
  5
3BD
 10
723.194594
 20
451.268501
 30
-220.0
 70
    64
  0
VERTEX
  8
I-SINK
  5
3BE
 10
740.281641
 20
446.69004
 30
-215.875766
 70
    64
  0
VERTEX
  8
I-SINK
  5
3BF
 10
753.845138
 20
443.055712
 30
-204.353528
 70
    64
  0
VERTEX
  8
I-SINK
  5
3C0
 10
761.088133
 20
441.114958
 30
-187.809307
 70
    64
  0
VERTEX
  8
I-SINK
  5
3C1
 10
713.826312
 20
428.651466
 30
-220.0
 70
    64
  0
VERTEX
  8
I-SINK
  5
3C2
 10
729.146139
 20
419.80656
 30
-215.875766
 70
    64
  0
VERTEX
  8
I-SINK
  5
3C3
 10
741.306837
 20
412.785578
 30
-204.353528
 70
    64
  0
VERTEX
  8
I-SINK
  5
3C4
 10
747.80073
 20
409.036327
 30
-187.809307
 70
    64
  0
VERTEX
  8
I-SINK
  5
3C5
 10
698.923527
 20
409.229779
 30
-220.0
 70
    64
  0
VERTEX
  8
I-SINK
  5
3C6
 10
711.432113
 20
396.721193
 30
-215.875766
 70
    64
  0
VERTEX
  8
I-SINK
  5
3C7
 10
721.361282
 20
386.792024
 30
-204.353528
 70
    64
  0
VERTEX
  8
I-SINK
  5
3C8
 10
726.663523
 20
381.489783
 30
-187.809307
 70
    64
  0
VERTEX
  8
I-SINK
  5
3C9
 10
679.501839
 20
394.326994
 30
-220.0
 70
    64
  0
VERTEX
  8
I-SINK
  5
3CA
 10
688.346745
 20
379.007167
 30
-215.875766
 70
    64
  0
VERTEX
  8
I-SINK
  5
3CB
 10
695.367728
 20
366.846469
 30
-204.353528
 70
    64
  0
VERTEX
  8
I-SINK
  5
3CC
 10
699.116979
 20
360.352576
 30
-187.809307
 70
    64
  0
VERTEX
  8
I-SINK
  5
3CD
 10
656.884805
 20
384.958712
 30
-220.0
 70
    64
  0
VERTEX
  8
I-SINK
  5
3CE
 10
661.463265
 20
367.871665
 30
-215.875766
 70
    64
  0
VERTEX
  8
I-SINK
  5
3CF
 10
665.097594
 20
354.308168
 30
-204.353528
 70
    64
  0
VERTEX
  8
I-SINK
  5
3D0
 10
667.038348
 20
347.065173
 30
-187.809307
 70
    64
  0
VERTEX
  8
I-SINK
  5
3D1
 10
632.613738
 20
381.763365
 30
-220.0
 70
    64
  0
VERTEX
  8
I-SINK
  5
3D2
 10
632.613738
 20
364.073553
 30
-215.875766
 70
    64
  0
VERTEX
  8
I-SINK
  5
3D3
 10
632.613738
 20
350.031587
 30
-204.353528
 70
    64
  0
VERTEX
  8
I-SINK
  5
3D4
 10
632.613738
 20
342.533087
 30
-187.809307
 70
    64
  0
VERTEX
  8
I-SINK
  5
3D5
 10
608.34267
 20
384.958712
 30
-220.0
 70
    64
  0
VERTEX
  8
I-SINK
  5
3D6
 10
603.76421
 20
367.871665
 30
-215.875766
 70
    64
  0
VERTEX
  8
I-SINK
  5
3D7
 10
600.129882
 20
354.308168
 30
-204.353528
 70
    64
  0
VERTEX
  8
I-SINK
  5
3D8
 10
598.189127
 20
347.065173
 30
-187.809307
 70
    64
  0
VERTEX
  8
I-SINK
  5
3D9
 10
585.725636
 20
394.326994
 30
-220.0
 70
    64
  0
VERTEX
  8
I-SINK
  5
3DA
 10
576.88073
 20
379.007167
 30
-215.875766
 70
    64
  0
VERTEX
  8
I-SINK
  5
3DB
 10
569.859748
 20
366.846469
 30
-204.353528
 70
    64
  0
VERTEX
  8
I-SINK
  5
3DC
 10
566.110497
 20
360.352576
 30
-187.809307
 70
    64
  0
VERTEX
  8
I-SINK
  5
3DD
 10
566.303949
 20
409.229779
 30
-220.0
 70
    64
  0
VERTEX
  8
I-SINK
  5
3DE
 10
553.795363
 20
396.721193
 30
-215.875766
 70
    64
  0
VERTEX
  8
I-SINK
  5
3DF
 10
543.866194
 20
386.792024
 30
-204.353528
 70
    64
  0
VERTEX
  8
I-SINK
  5
3E0
 10
538.563953
 20
381.489783
 30
-187.809307
 70
    64
  0
VERTEX
  8
I-SINK
  5
3E1
 10
551.401164
 20
428.651466
 30
-220.0
 70
    64
  0
VERTEX
  8
I-SINK
  5
3E2
 10
536.081337
 20
419.80656
 30
-215.875766
 70
    64
  0
VERTEX
  8
I-SINK
  5
3E3
 10
523.920638
 20
412.785578
 30
-204.353528
 70
    64
  0
VERTEX
  8
I-SINK
  5
3E4
 10
517.426746
 20
409.036327
 30
-187.809307
 70
    64
  0
VERTEX
  8
I-SINK
  5
3E5
 10
542.032881
 20
451.268501
 30
-220.0
 70
    64
  0
VERTEX
  8
I-SINK
  5
3E6
 10
524.945835
 20
446.69004
 30
-215.875766
 70
    64
  0
VERTEX
  8
I-SINK
  5
3E7
 10
511.382338
 20
443.055712
 30
-204.353528
 70
    64
  0
VERTEX
  8
I-SINK
  5
3E8
 10
504.139342
 20
441.114958
 30
-187.809307
 70
    64
  0
VERTEX
  8
I-SINK
  5
3E9
 10
538.837535
 20
475.539568
 30
-220.0
 70
    64
  0
VERTEX
  8
I-SINK
  5
3EA
 10
521.147723
 20
475.539568
 30
-215.875766
 70
    64
  0
VERTEX
  8
I-SINK
  5
3EB
 10
507.105757
 20
475.539568
 30
-204.353528
 70
    64
  0
VERTEX
  8
I-SINK
  5
3EC
 10
499.607256
 20
475.539568
 30
-187.809307
 70
    64
  0
VERTEX
  8
I-SINK
  5
3ED
 10
542.032881
 20
499.810635
 30
-220.0
 70
    64
  0
VERTEX
  8
I-SINK
  5
3EE
 10
524.945835
 20
504.389096
 30
-215.875766
 70
    64
  0
VERTEX
  8
I-SINK
  5
3EF
 10
511.382338
 20
508.023424
 30
-204.353528
 70
    64
  0
VERTEX
  8
I-SINK
  5
3F0
 10
504.139342
 20
509.964179
 30
-187.809307
 70
    64
  0
VERTEX
  8
I-SINK
  5
3F1
 10
551.401164
 20
522.42767
 30
-220.0
 70
    64
  0
VERTEX
  8
I-SINK
  5
3F2
 10
536.081337
 20
531.272576
 30
-215.875766
 70
    64
  0
VERTEX
  8
I-SINK
  5
3F3
 10
523.920638
 20
538.293558
 30
-204.353528
 70
    64
  0
VERTEX
  8
I-SINK
  5
3F4
 10
517.426746
 20
542.042809
 30
-187.809307
 70
    64
  0
VERTEX
  8
I-SINK
  5
3F5
 10
566.303949
 20
541.849357
 30
-220.0
 70
    64
  0
VERTEX
  8
I-SINK
  5
3F6
 10
553.795363
 20
554.357943
 30
-215.875766
 70
    64
  0
VERTEX
  8
I-SINK
  5
3F7
 10
543.866194
 20
564.287112
 30
-204.353528
 70
    64
  0
VERTEX
  8
I-SINK
  5
3F8
 10
538.563953
 20
569.589353
 30
-187.809307
 70
    64
  0
VERTEX
  8
I-SINK
  5
3F9
 10
585.725636
 20
556.752142
 30
-220.0
 70
    64
  0
VERTEX
  8
I-SINK
  5
3FA
 10
576.88073
 20
572.071969
 30
-215.875766
 70
    64
  0
VERTEX
  8
I-SINK
  5
3FB
 10
569.859748
 20
584.232668
 30
-204.353528
 70
    64
  0
VERTEX
  8
I-SINK
  5
3FC
 10
566.110497
 20
590.72656
 30
-187.809307
 70
    64
  0
VERTEX
  8
I-SINK
  5
3FD
 10
608.34267
 20
566.120425
 30
-220.0
 70
    64
  0
VERTEX
  8
I-SINK
  5
3FE
 10
603.76421
 20
583.207471
 30
-215.875766
 70
    64
  0
VERTEX
  8
I-SINK
  5
3FF
 10
600.129882
 20
596.770968
 30
-204.353528
 70
    64
  0
VERTEX
  8
I-SINK
  5
400
 10
598.189127
 20
604.013964
 30
-187.809307
 70
    64
  0
VERTEX
  8
I-SINK
  5
401
 10
632.613738
 20
569.315771
 30
-220.0
 70
    64
  0
VERTEX
  8
I-SINK
  5
402
 10
632.613738
 20
587.005583
 30
-215.875766
 70
    64
  0
VERTEX
  8
I-SINK
  5
403
 10
632.613738
 20
601.047549
 30
-204.353528
 70
    64
  0
VERTEX
  8
I-SINK
  5
404
 10
632.613738
 20
608.54605
 30
-187.809307
 70
    64
  0
VERTEX
  8
I-SINK
  5
405
 10
656.884805
 20
566.120425
 30
-220.0
 70
    64
  0
VERTEX
  8
I-SINK
  5
406
 10
661.463265
 20
583.207471
 30
-215.875766
 70
    64
  0
VERTEX
  8
I-SINK
  5
407
 10
665.097594
 20
596.770968
 30
-204.353528
 70
    64
  0
VERTEX
  8
I-SINK
  5
408
 10
667.038348
 20
604.013964
 30
-187.809307
 70
    64
  0
VERTEX
  8
I-SINK
  5
409
 10
679.501839
 20
556.752142
 30
-220.0
 70
    64
  0
VERTEX
  8
I-SINK
  5
40A
 10
688.346745
 20
572.071969
 30
-215.875766
 70
    64
  0
VERTEX
  8
I-SINK
  5
40B
 10
695.367728
 20
584.232668
 30
-204.353528
 70
    64
  0
VERTEX
  8
I-SINK
  5
40C
 10
699.116979
 20
590.72656
 30
-187.809307
 70
    64
  0
VERTEX
  8
I-SINK
  5
40D
 10
698.923527
 20
541.849357
 30
-220.0
 70
    64
  0
VERTEX
  8
I-SINK
  5
40E
 10
711.432113
 20
554.357943
 30
-215.875766
 70
    64
  0
VERTEX
  8
I-SINK
  5
40F
 10
721.361282
 20
564.287112
 30
-204.353528
 70
    64
  0
VERTEX
  8
I-SINK
  5
410
 10
726.663523
 20
569.589353
 30
-187.809307
 70
    64
  0
VERTEX
  8
I-SINK
  5
411
 10
713.826312
 20
522.42767
 30
-220.0
 70
    64
  0
VERTEX
  8
I-SINK
  5
412
 10
729.146139
 20
531.272576
 30
-215.875766
 70
    64
  0
VERTEX
  8
I-SINK
  5
413
 10
741.306837
 20
538.293558
 30
-204.353528
 70
    64
  0
VERTEX
  8
I-SINK
  5
414
 10
747.80073
 20
542.042809
 30
-187.809307
 70
    64
  0
VERTEX
  8
I-SINK
  5
415
 10
723.194594
 20
499.810635
 30
-220.0
 70
    64
  0
VERTEX
  8
I-SINK
  5
416
 10
740.281641
 20
504.389096
 30
-215.875766
 70
    64
  0
VERTEX
  8
I-SINK
  5
417
 10
753.845138
 20
508.023424
 30
-204.353528
 70
    64
  0
VERTEX
  8
I-SINK
  5
418
 10
761.088133
 20
509.964179
 30
-187.809307
 70
    64
  0
SEQEND
  8
I-SINK
  5
419
  0
POLYLINE
  8
I-SINK
  5
41A
 66
     1
 10
0.0
 20
0.0
 30
0.0
 70
    17
 71
    24
 72
     4
  0
VERTEX
  8
I-SINK
  5
41B
 10
746.00508
 20
475.539568
 30
-183.904653
 70
    64
  0
VERTEX
  8
I-SINK
  5
41C
 10
758.207966
 20
475.539568
 30
-122.603102
 70
    64
  0
VERTEX
  8
I-SINK
  5
41D
 10
770.410852
 20
475.539568
 30
-61.301551
 70
    64
  0
VERTEX
  8
I-SINK
  5
41E
 10
782.613738
 20
475.539568
 30
0.0
 70
    64
  0
VERTEX
  8
I-SINK
  5
41F
 10
742.141364
 20
504.887407
 30
-183.904653
 70
    64
  0
VERTEX
  8
I-SINK
  5
420
 10
753.928446
 20
508.045746
 30
-122.603102
 70
    64
  0
VERTEX
  8
I-SINK
  5
421
 10
765.715529
 20
511.204086
 30
-61.301551
 70
    64
  0
VERTEX
  8
I-SINK
  5
422
 10
777.502612
 20
514.362425
 30
0.0
 70
    64
  0
VERTEX
  8
I-SINK
  5
423
 10
730.813521
 20
532.235239
 30
-183.904653
 70
    64
  0
VERTEX
  8
I-SINK
  5
424
 10
741.38153
 20
538.336682
 30
-122.603102
 70
    64
  0
VERTEX
  8
I-SINK
  5
425
 10
751.949539
 20
544.438125
 30
-61.301551
 70
    64
  0
VERTEX
  8
I-SINK
  5
426
 10
762.517548
 20
550.539568
 30
0.0
 70
    64
  0
VERTEX
  8
I-SINK
  5
427
 10
712.793525
 20
555.719355
 30
-183.904653
 70
    64
  0
VERTEX
  8
I-SINK
  5
428
 10
721.422268
 20
564.348099
 30
-122.603102
 70
    64
  0
VERTEX
  8
I-SINK
  5
429
 10
730.051012
 20
572.976842
 30
-61.301551
 70
    64
  0
VERTEX
  8
I-SINK
  5
42A
 10
738.679755
 20
581.605585
 30
0.0
 70
    64
  0
VERTEX
  8
I-SINK
  5
42B
 10
689.309409
 20
573.739351
 30
-183.904653
 70
    64
  0
VERTEX
  8
I-SINK
  5
42C
 10
695.410852
 20
584.30736
 30
-122.603102
 70
    64
  0
VERTEX
  8
I-SINK
  5
42D
 10
701.512295
 20
594.875369
 30
-61.301551
 70
    64
  0
VERTEX
  8
I-SINK
  5
42E
 10
707.613738
 20
605.443379
 30
0.0
 70
    64
  0
VERTEX
  8
I-SINK
  5
42F
 10
661.961577
 20
585.067194
 30
-183.904653
 70
    64
  0
VERTEX
  8
I-SINK
  5
430
 10
665.119916
 20
596.854277
 30
-122.603102
 70
    64
  0
VERTEX
  8
I-SINK
  5
431
 10
668.278255
 20
608.641359
 30
-61.301551
 70
    64
  0
VERTEX
  8
I-SINK
  5
432
 10
671.436595
 20
620.428442
 30
0.0
 70
    64
  0
VERTEX
  8
I-SINK
  5
433
 10
632.613738
 20
588.93091
 30
-183.904653
 70
    64
  0
VERTEX
  8
I-SINK
  5
434
 10
632.613738
 20
601.133796
 30
-122.603102
 70
    64
  0
VERTEX
  8
I-SINK
  5
435
 10
632.613738
 20
613.336682
 30
-61.301551
 70
    64
  0
VERTEX
  8
I-SINK
  5
436
 10
632.613738
 20
625.539568
 30
0.0
 70
    64
  0
VERTEX
  8
I-SINK
  5
437
 10
603.265899
 20
585.067194
 30
-183.904653
 70
    64
  0
VERTEX
  8
I-SINK
  5
438
 10
600.10756
 20
596.854277
 30
-122.603102
 70
    64
  0
VERTEX
  8
I-SINK
  5
439
 10
596.94922
 20
608.641359
 30
-61.301551
 70
    64
  0
VERTEX
  8
I-SINK
  5
43A
 10
593.790881
 20
620.428442
 30
0.0
 70
    64
  0
VERTEX
  8
I-SINK
  5
43B
 10
575.918067
 20
573.739351
 30
-183.904653
 70
    64
  0
VERTEX
  8
I-SINK
  5
43C
 10
569.816624
 20
584.30736
 30
-122.603102
 70
    64
  0
VERTEX
  8
I-SINK
  5
43D
 10
563.715181
 20
594.875369
 30
-61.301551
 70
    64
  0
VERTEX
  8
I-SINK
  5
43E
 10
557.613738
 20
605.443379
 30
0.0
 70
    64
  0
VERTEX
  8
I-SINK
  5
43F
 10
552.433951
 20
555.719355
 30
-183.904653
 70
    64
  0
VERTEX
  8
I-SINK
  5
440
 10
543.805207
 20
564.348099
 30
-122.603102
 70
    64
  0
VERTEX
  8
I-SINK
  5
441
 10
535.176464
 20
572.976842
 30
-61.301551
 70
    64
  0
VERTEX
  8
I-SINK
  5
442
 10
526.547721
 20
581.605585
 30
0.0
 70
    64
  0
VERTEX
  8
I-SINK
  5
443
 10
534.413955
 20
532.235239
 30
-183.904653
 70
    64
  0
VERTEX
  8
I-SINK
  5
444
 10
523.845946
 20
538.336682
 30
-122.603102
 70
    64
  0
VERTEX
  8
I-SINK
  5
445
 10
513.277936
 20
544.438125
 30
-61.301551
 70
    64
  0
VERTEX
  8
I-SINK
  5
446
 10
502.709927
 20
550.539568
 30
0.0
 70
    64
  0
VERTEX
  8
I-SINK
  5
447
 10
523.086112
 20
504.887407
 30
-183.904653
 70
    64
  0
VERTEX
  8
I-SINK
  5
448
 10
511.299029
 20
508.045746
 30
-122.603102
 70
    64
  0
VERTEX
  8
I-SINK
  5
449
 10
499.511947
 20
511.204086
 30
-61.301551
 70
    64
  0
VERTEX
  8
I-SINK
  5
44A
 10
487.724864
 20
514.362425
 30
0.0
 70
    64
  0
VERTEX
  8
I-SINK
  5
44B
 10
519.222396
 20
475.539568
 30
-183.904653
 70
    64
  0
VERTEX
  8
I-SINK
  5
44C
 10
507.01951
 20
475.539568
 30
-122.603102
 70
    64
  0
VERTEX
  8
I-SINK
  5
44D
 10
494.816624
 20
475.539568
 30
-61.301551
 70
    64
  0
VERTEX
  8
I-SINK
  5
44E
 10
482.613738
 20
475.539568
 30
0.0
 70
    64
  0
VERTEX
  8
I-SINK
  5
44F
 10
523.086112
 20
446.191729
 30
-183.904653
 70
    64
  0
VERTEX
  8
I-SINK
  5
450
 10
511.299029
 20
443.03339
 30
-122.603102
 70
    64
  0
VERTEX
  8
I-SINK
  5
451
 10
499.511947
 20
439.875051
 30
-61.301551
 70
    64
  0
VERTEX
  8
I-SINK
  5
452
 10
487.724864
 20
436.716711
 30
0.0
 70
    64
  0
VERTEX
  8
I-SINK
  5
453
 10
534.413955
 20
418.843897
 30
-183.904653
 70
    64
  0
VERTEX
  8
I-SINK
  5
454
 10
523.845946
 20
412.742454
 30
-122.603102
 70
    64
  0
VERTEX
  8
I-SINK
  5
455
 10
513.277936
 20
406.641011
 30
-61.301551
 70
    64
  0
VERTEX
  8
I-SINK
  5
456
 10
502.709927
 20
400.539568
 30
0.0
 70
    64
  0
VERTEX
  8
I-SINK
  5
457
 10
552.433951
 20
395.359781
 30
-183.904653
 70
    64
  0
VERTEX
  8
I-SINK
  5
458
 10
543.805207
 20
386.731038
 30
-122.603102
 70
    64
  0
VERTEX
  8
I-SINK
  5
459
 10
535.176464
 20
378.102294
 30
-61.301551
 70
    64
  0
VERTEX
  8
I-SINK
  5
45A
 10
526.547721
 20
369.473551
 30
0.0
 70
    64
  0
VERTEX
  8
I-SINK
  5
45B
 10
575.918067
 20
377.339785
 30
-183.904653
 70
    64
  0
VERTEX
  8
I-SINK
  5
45C
 10
569.816624
 20
366.771776
 30
-122.603102
 70
    64
  0
VERTEX
  8
I-SINK
  5
45D
 10
563.715181
 20
356.203767
 30
-61.301551
 70
    64
  0
VERTEX
  8
I-SINK
  5
45E
 10
557.613738
 20
345.635758
 30
0.0
 70
    64
  0
VERTEX
  8
I-SINK
  5
45F
 10
603.265899
 20
366.011942
 30
-183.904653
 70
    64
  0
VERTEX
  8
I-SINK
  5
460
 10
600.10756
 20
354.224859
 30
-122.603102
 70
    64
  0
VERTEX
  8
I-SINK
  5
461
 10
596.94922
 20
342.437777
 30
-61.301551
 70
    64
  0
VERTEX
  8
I-SINK
  5
462
 10
593.790881
 20
330.650694
 30
0.0
 70
    64
  0
VERTEX
  8
I-SINK
  5
463
 10
632.613738
 20
362.148226
 30
-183.904653
 70
    64
  0
VERTEX
  8
I-SINK
  5
464
 10
632.613738
 20
349.94534
 30
-122.603102
 70
    64
  0
VERTEX
  8
I-SINK
  5
465
 10
632.613738
 20
337.742454
 30
-61.301551
 70
    64
  0
VERTEX
  8
I-SINK
  5
466
 10
632.613738
 20
325.539568
 30
0.0
 70
    64
  0
VERTEX
  8
I-SINK
  5
467
 10
661.961577
 20
366.011942
 30
-183.904653
 70
    64
  0
VERTEX
  8
I-SINK
  5
468
 10
665.119916
 20
354.224859
 30
-122.603102
 70
    64
  0
VERTEX
  8
I-SINK
  5
469
 10
668.278255
 20
342.437777
 30
-61.301551
 70
    64
  0
VERTEX
  8
I-SINK
  5
46A
 10
671.436595
 20
330.650694
 30
0.0
 70
    64
  0
VERTEX
  8
I-SINK
  5
46B
 10
689.309409
 20
377.339785
 30
-183.904653
 70
    64
  0
VERTEX
  8
I-SINK
  5
46C
 10
695.410852
 20
366.771776
 30
-122.603102
 70
    64
  0
VERTEX
  8
I-SINK
  5
46D
 10
701.512295
 20
356.203767
 30
-61.301551
 70
    64
  0
VERTEX
  8
I-SINK
  5
46E
 10
707.613738
 20
345.635758
 30
0.0
 70
    64
  0
VERTEX
  8
I-SINK
  5
46F
 10
712.793525
 20
395.359781
 30
-183.904653
 70
    64
  0
VERTEX
  8
I-SINK
  5
470
 10
721.422268
 20
386.731038
 30
-122.603102
 70
    64
  0
VERTEX
  8
I-SINK
  5
471
 10
730.051012
 20
378.102294
 30
-61.301551
 70
    64
  0
VERTEX
  8
I-SINK
  5
472
 10
738.679755
 20
369.473551
 30
0.0
 70
    64
  0
VERTEX
  8
I-SINK
  5
473
 10
730.813521
 20
418.843897
 30
-183.904653
 70
    64
  0
VERTEX
  8
I-SINK
  5
474
 10
741.38153
 20
412.742454
 30
-122.603102
 70
    64
  0
VERTEX
  8
I-SINK
  5
475
 10
751.949539
 20
406.641011
 30
-61.301551
 70
    64
  0
VERTEX
  8
I-SINK
  5
476
 10
762.517548
 20
400.539568
 30
0.0
 70
    64
  0
VERTEX
  8
I-SINK
  5
477
 10
742.141364
 20
446.191729
 30
-183.904653
 70
    64
  0
VERTEX
  8
I-SINK
  5
478
 10
753.928446
 20
443.03339
 30
-122.603102
 70
    64
  0
VERTEX
  8
I-SINK
  5
479
 10
765.715529
 20
439.875051
 30
-61.301551
 70
    64
  0
VERTEX
  8
I-SINK
  5
47A
 10
777.502612
 20
436.716711
 30
0.0
 70
    64
  0
SEQEND
  8
I-SINK
  5
47B
  0
POLYLINE
  8
I-SINK
  5
4DE
 66
     1
 10
0.0
 20
0.0
 30
0.0
 70
    17
 71
    24
 72
     4
  0
VERTEX
  8
I-SINK
  5
4DF
 10
802.228877
 20
475.539568
 30
-3.904653
 70
    64
  0
VERTEX
  8
I-SINK
  5
4E0
 10
790.025991
 20
475.539568
 30
-65.206204
 70
    64
  0
VERTEX
  8
I-SINK
  5
4E1
 10
777.823105
 20
475.539568
 30
-126.507756
 70
    64
  0
VERTEX
  8
I-SINK
  5
4E2
 10
765.620219
 20
475.539568
 30
-187.809307
 70
    64
  0
VERTEX
  8
I-SINK
  5
4E3
 10
796.449381
 20
519.439196
 30
-3.904653
 70
    64
  0
VERTEX
  8
I-SINK
  5
4E4
 10
784.662299
 20
516.280857
 30
-65.206204
 70
    64
  0
VERTEX
  8
I-SINK
  5
4E5
 10
772.875216
 20
513.122518
 30
-126.507756
 70
    64
  0
VERTEX
  8
I-SINK
  5
4E6
 10
761.088133
 20
509.964179
 30
-187.809307
 70
    64
  0
VERTEX
  8
I-SINK
  5
4E7
 10
779.504757
 20
560.347138
 30
-3.904653
 70
    64
  0
VERTEX
  8
I-SINK
  5
4E8
 10
768.936748
 20
554.245695
 30
-65.206204
 70
    64
  0
VERTEX
  8
I-SINK
  5
4E9
 10
758.368739
 20
548.144252
 30
-126.507756
 70
    64
  0
VERTEX
  8
I-SINK
  5
4EA
 10
747.80073
 20
542.042809
 30
-187.809307
 70
    64
  0
VERTEX
  8
I-SINK
  5
4EB
 10
752.549753
 20
595.475583
 30
-3.904653
 70
    64
  0
VERTEX
  8
I-SINK
  5
4EC
 10
743.92101
 20
586.84684
 30
-65.206204
 70
    64
  0
VERTEX
  8
I-SINK
  5
4ED
 10
735.292266
 20
578.218096
 30
-126.507756
 70
    64
  0
VERTEX
  8
I-SINK
  5
4EE
 10
726.663523
 20
569.589353
 30
-187.809307
 70
    64
  0
VERTEX
  8
I-SINK
  5
4EF
 10
717.421307
 20
622.430587
 30
-3.904653
 70
    64
  0
VERTEX
  8
I-SINK
  5
4F0
 10
711.319864
 20
611.862578
 30
-65.206204
 70
    64
  0
VERTEX
  8
I-SINK
  5
4F1
 10
705.218421
 20
601.294569
 30
-126.507756
 70
    64
  0
VERTEX
  8
I-SINK
  5
4F2
 10
699.116979
 20
590.72656
 30
-187.809307
 70
    64
  0
VERTEX
  8
I-SINK
  5
4F3
 10
676.513366
 20
639.375211
 30
-3.904653
 70
    64
  0
VERTEX
  8
I-SINK
  5
4F4
 10
673.355027
 20
627.588129
 30
-65.206204
 70
    64
  0
VERTEX
  8
I-SINK
  5
4F5
 10
670.196688
 20
615.801046
 30
-126.507756
 70
    64
  0
VERTEX
  8
I-SINK
  5
4F6
 10
667.038348
 20
604.013964
 30
-187.809307
 70
    64
  0
VERTEX
  8
I-SINK
  5
4F7
 10
632.613738
 20
645.154707
 30
-3.904653
 70
    64
  0
VERTEX
  8
I-SINK
  5
4F8
 10
632.613738
 20
632.951821
 30
-65.206204
 70
    64
  0
VERTEX
  8
I-SINK
  5
4F9
 10
632.613738
 20
620.748935
 30
-126.507756
 70
    64
  0
VERTEX
  8
I-SINK
  5
4FA
 10
632.613738
 20
608.54605
 30
-187.809307
 70
    64
  0
VERTEX
  8
I-SINK
  5
4FB
 10
588.714109
 20
639.375211
 30
-3.904653
 70
    64
  0
VERTEX
  8
I-SINK
  5
4FC
 10
591.872449
 20
627.588129
 30
-65.206204
 70
    64
  0
VERTEX
  8
I-SINK
  5
4FD
 10
595.030788
 20
615.801046
 30
-126.507756
 70
    64
  0
VERTEX
  8
I-SINK
  5
4FE
 10
598.189127
 20
604.013964
 30
-187.809307
 70
    64
  0
VERTEX
  8
I-SINK
  5
4FF
 10
547.806168
 20
622.430587
 30
-3.904653
 70
    64
  0
VERTEX
  8
I-SINK
  5
500
 10
553.907611
 20
611.862578
 30
-65.206204
 70
    64
  0
VERTEX
  8
I-SINK
  5
501
 10
560.009054
 20
601.294569
 30
-126.507756
 70
    64
  0
VERTEX
  8
I-SINK
  5
502
 10
566.110497
 20
590.72656
 30
-187.809307
 70
    64
  0
VERTEX
  8
I-SINK
  5
503
 10
512.677723
 20
595.475583
 30
-3.904653
 70
    64
  0
VERTEX
  8
I-SINK
  5
504
 10
521.306466
 20
586.84684
 30
-65.206204
 70
    64
  0
VERTEX
  8
I-SINK
  5
505
 10
529.935209
 20
578.218096
 30
-126.507756
 70
    64
  0
VERTEX
  8
I-SINK
  5
506
 10
538.563953
 20
569.589353
 30
-187.809307
 70
    64
  0
VERTEX
  8
I-SINK
  5
507
 10
485.722718
 20
560.347138
 30
-3.904653
 70
    64
  0
VERTEX
  8
I-SINK
  5
508
 10
496.290728
 20
554.245695
 30
-65.206204
 70
    64
  0
VERTEX
  8
I-SINK
  5
509
 10
506.858737
 20
548.144252
 30
-126.507756
 70
    64
  0
VERTEX
  8
I-SINK
  5
50A
 10
517.426746
 20
542.042809
 30
-187.809307
 70
    64
  0
VERTEX
  8
I-SINK
  5
50B
 10
468.778094
 20
519.439196
 30
-3.904653
 70
    64
  0
VERTEX
  8
I-SINK
  5
50C
 10
480.565177
 20
516.280857
 30
-65.206204
 70
    64
  0
VERTEX
  8
I-SINK
  5
50D
 10
492.35226
 20
513.122518
 30
-126.507756
 70
    64
  0
VERTEX
  8
I-SINK
  5
50E
 10
504.139342
 20
509.964179
 30
-187.809307
 70
    64
  0
VERTEX
  8
I-SINK
  5
50F
 10
462.998599
 20
475.539568
 30
-3.904653
 70
    64
  0
VERTEX
  8
I-SINK
  5
510
 10
475.201485
 20
475.539568
 30
-65.206204
 70
    64
  0
VERTEX
  8
I-SINK
  5
511
 10
487.404371
 20
475.539568
 30
-126.507756
 70
    64
  0
VERTEX
  8
I-SINK
  5
512
 10
499.607256
 20
475.539568
 30
-187.809307
 70
    64
  0
VERTEX
  8
I-SINK
  5
513
 10
468.778094
 20
431.63994
 30
-3.904653
 70
    64
  0
VERTEX
  8
I-SINK
  5
514
 10
480.565177
 20
434.798279
 30
-65.206204
 70
    64
  0
VERTEX
  8
I-SINK
  5
515
 10
492.35226
 20
437.956618
 30
-126.507756
 70
    64
  0
VERTEX
  8
I-SINK
  5
516
 10
504.139342
 20
441.114958
 30
-187.809307
 70
    64
  0
VERTEX
  8
I-SINK
  5
517
 10
485.722718
 20
390.731999
 30
-3.904653
 70
    64
  0
VERTEX
  8
I-SINK
  5
518
 10
496.290728
 20
396.833441
 30
-65.206204
 70
    64
  0
VERTEX
  8
I-SINK
  5
519
 10
506.858737
 20
402.934884
 30
-126.507756
 70
    64
  0
VERTEX
  8
I-SINK
  5
51A
 10
517.426746
 20
409.036327
 30
-187.809307
 70
    64
  0
VERTEX
  8
I-SINK
  5
51B
 10
512.677723
 20
355.603553
 30
-3.904653
 70
    64
  0
VERTEX
  8
I-SINK
  5
51C
 10
521.306466
 20
364.232296
 30
-65.206204
 70
    64
  0
VERTEX
  8
I-SINK
  5
51D
 10
529.935209
 20
372.86104
 30
-126.507756
 70
    64
  0
VERTEX
  8
I-SINK
  5
51E
 10
538.563953
 20
381.489783
 30
-187.809307
 70
    64
  0
VERTEX
  8
I-SINK
  5
51F
 10
547.806168
 20
328.648549
 30
-3.904653
 70
    64
  0
VERTEX
  8
I-SINK
  5
520
 10
553.907611
 20
339.216558
 30
-65.206204
 70
    64
  0
VERTEX
  8
I-SINK
  5
521
 10
560.009054
 20
349.784567
 30
-126.507756
 70
    64
  0
VERTEX
  8
I-SINK
  5
522
 10
566.110497
 20
360.352576
 30
-187.809307
 70
    64
  0
VERTEX
  8
I-SINK
  5
523
 10
588.714109
 20
311.703925
 30
-3.904653
 70
    64
  0
VERTEX
  8
I-SINK
  5
524
 10
591.872449
 20
323.491007
 30
-65.206204
 70
    64
  0
VERTEX
  8
I-SINK
  5
525
 10
595.030788
 20
335.27809
 30
-126.507756
 70
    64
  0
VERTEX
  8
I-SINK
  5
526
 10
598.189127
 20
347.065173
 30
-187.809307
 70
    64
  0
VERTEX
  8
I-SINK
  5
527
 10
632.613738
 20
305.924429
 30
-3.904653
 70
    64
  0
VERTEX
  8
I-SINK
  5
528
 10
632.613738
 20
318.127315
 30
-65.206204
 70
    64
  0
VERTEX
  8
I-SINK
  5
529
 10
632.613738
 20
330.330201
 30
-126.507756
 70
    64
  0
VERTEX
  8
I-SINK
  5
52A
 10
632.613738
 20
342.533087
 30
-187.809307
 70
    64
  0
VERTEX
  8
I-SINK
  5
52B
 10
676.513366
 20
311.703925
 30
-3.904653
 70
    64
  0
VERTEX
  8
I-SINK
  5
52C
 10
673.355027
 20
323.491007
 30
-65.206204
 70
    64
  0
VERTEX
  8
I-SINK
  5
52D
 10
670.196688
 20
335.27809
 30
-126.507756
 70
    64
  0
VERTEX
  8
I-SINK
  5
52E
 10
667.038348
 20
347.065173
 30
-187.809307
 70
    64
  0
VERTEX
  8
I-SINK
  5
52F
 10
717.421307
 20
328.648549
 30
-3.904653
 70
    64
  0
VERTEX
  8
I-SINK
  5
530
 10
711.319864
 20
339.216558
 30
-65.206204
 70
    64
  0
VERTEX
  8
I-SINK
  5
531
 10
705.218421
 20
349.784567
 30
-126.507756
 70
    64
  0
VERTEX
  8
I-SINK
  5
532
 10
699.116979
 20
360.352576
 30
-187.809307
 70
    64
  0
VERTEX
  8
I-SINK
  5
533
 10
752.549753
 20
355.603553
 30
-3.904653
 70
    64
  0
VERTEX
  8
I-SINK
  5
534
 10
743.92101
 20
364.232296
 30
-65.206204
 70
    64
  0
VERTEX
  8
I-SINK
  5
535
 10
735.292266
 20
372.86104
 30
-126.507756
 70
    64
  0
VERTEX
  8
I-SINK
  5
536
 10
726.663523
 20
381.489783
 30
-187.809307
 70
    64
  0
VERTEX
  8
I-SINK
  5
537
 10
779.504757
 20
390.731999
 30
-3.904653
 70
    64
  0
VERTEX
  8
I-SINK
  5
538
 10
768.936748
 20
396.833441
 30
-65.206204
 70
    64
  0
VERTEX
  8
I-SINK
  5
539
 10
758.368739
 20
402.934884
 30
-126.507756
 70
    64
  0
VERTEX
  8
I-SINK
  5
53A
 10
747.80073
 20
409.036327
 30
-187.809307
 70
    64
  0
VERTEX
  8
I-SINK
  5
53B
 10
796.449381
 20
431.63994
 30
-3.904653
 70
    64
  0
VERTEX
  8
I-SINK
  5
53C
 10
784.662299
 20
434.798279
 30
-65.206204
 70
    64
  0
VERTEX
  8
I-SINK
  5
53D
 10
772.875216
 20
437.956618
 30
-126.507756
 70
    64
  0
VERTEX
  8
I-SINK
  5
53E
 10
761.088133
 20
441.114958
 30
-187.809307
 70
    64
  0
SEQEND
  8
I-SINK
  5
53F
  0
POLYLINE
  8
I-SINK
  5
604
 66
     1
 10
0.0
 20
0.0
 30
0.0
 70
    17
 71
    24
 72
     6
  0
VERTEX
  8
I-SINK
  5
605
 10
802.228877
 20
475.539568
 30
-3.904653
 70
    64
  0
VERTEX
  8
I-SINK
  5
606
 10
801.503347
 20
475.539568
 30
2.232953
 70
    64
  0
VERTEX
  8
I-SINK
  5
607
 10
797.308786
 20
475.539568
 30
6.771924
 70
    64
  0
VERTEX
  8
I-SINK
  5
608
 10
791.247375
 20
475.539568
 30
7.978528
 70
    64
  0
VERTEX
  8
I-SINK
  5
609
 10
785.634366
 20
475.539568
 30
5.391884
 70
    64
  0
VERTEX
  8
I-SINK
  5
60A
 10
782.613738
 20
475.539568
 30
0.0
 70
    64
  0
VERTEX
  8
I-SINK
  5
60B
 10
796.449381
 20
431.63994
 30
-3.904653
 70
    64
  0
VERTEX
  8
I-SINK
  5
60C
 10
795.748573
 20
431.827721
 30
2.232953
 70
    64
  0
VERTEX
  8
I-SINK
  5
60D
 10
791.696938
 20
432.913353
 30
6.771924
 70
    64
  0
VERTEX
  8
I-SINK
  5
60E
 10
785.842065
 20
434.482162
 30
7.978528
 70
    64
  0
VERTEX
  8
I-SINK
  5
60F
 10
780.420314
 20
435.934915
 30
5.391884
 70
    64
  0
VERTEX
  8
I-SINK
  5
610
 10
777.502612
 20
436.716711
 30
0.0
 70
    64
  0
VERTEX
  8
I-SINK
  5
611
 10
779.504757
 20
390.731999
 30
-3.904653
 70
    64
  0
VERTEX
  8
I-SINK
  5
612
 10
778.876429
 20
391.094764
 30
2.232953
 70
    64
  0
VERTEX
  8
I-SINK
  5
613
 10
775.243833
 20
393.192044
 30
6.771924
 70
    64
  0
VERTEX
  8
I-SINK
  5
614
 10
769.994497
 20
396.22275
 30
7.978528
 70
    64
  0
VERTEX
  8
I-SINK
  5
615
 10
765.133489
 20
399.029254
 30
5.391884
 70
    64
  0
VERTEX
  8
I-SINK
  5
616
 10
762.517548
 20
400.539568
 30
0.0
 70
    64
  0
VERTEX
  8
I-SINK
  5
617
 10
752.549753
 20
355.603553
 30
-3.904653
 70
    64
  0
VERTEX
  8
I-SINK
  5
618
 10
752.036725
 20
356.11658
 30
2.232953
 70
    64
  0
VERTEX
  8
I-SINK
  5
619
 10
749.070723
 20
359.082583
 30
6.771924
 70
    64
  0
VERTEX
  8
I-SINK
  5
61A
 10
744.784658
 20
363.368648
 30
7.978528
 70
    64
  0
VERTEX
  8
I-SINK
  5
61B
 10
740.815661
 20
367.337644
 30
5.391884
 70
    64
  0
VERTEX
  8
I-SINK
  5
61C
 10
738.679755
 20
369.473551
 30
0.0
 70
    64
  0
VERTEX
  8
I-SINK
  5
61D
 10
717.421307
 20
328.648549
 30
-3.904653
 70
    64
  0
VERTEX
  8
I-SINK
  5
61E
 10
717.058542
 20
329.276876
 30
2.232953
 70
    64
  0
VERTEX
  8
I-SINK
  5
61F
 10
714.961262
 20
332.909472
 30
6.771924
 70
    64
  0
VERTEX
  8
I-SINK
  5
620
 10
711.930556
 20
338.158809
 30
7.978528
 70
    64
  0
VERTEX
  8
I-SINK
  5
621
 10
709.124052
 20
343.019817
 30
5.391884
 70
    64
  0
VERTEX
  8
I-SINK
  5
622
 10
707.613738
 20
345.635758
 30
0.0
 70
    64
  0
VERTEX
  8
I-SINK
  5
623
 10
676.513366
 20
311.703925
 30
-3.904653
 70
    64
  0
VERTEX
  8
I-SINK
  5
624
 10
676.325585
 20
312.404733
 30
2.232953
 70
    64
  0
VERTEX
  8
I-SINK
  5
625
 10
675.239953
 20
316.456368
 30
6.771924
 70
    64
  0
VERTEX
  8
I-SINK
  5
626
 10
673.671144
 20
322.311241
 30
7.978528
 70
    64
  0
VERTEX
  8
I-SINK
  5
627
 10
672.218391
 20
327.732992
 30
5.391884
 70
    64
  0
VERTEX
  8
I-SINK
  5
628
 10
671.436595
 20
330.650694
 30
0.0
 70
    64
  0
VERTEX
  8
I-SINK
  5
629
 10
632.613738
 20
305.924429
 30
-3.904653
 70
    64
  0
VERTEX
  8
I-SINK
  5
62A
 10
632.613738
 20
306.649959
 30
2.232953
 70
    64
  0
VERTEX
  8
I-SINK
  5
62B
 10
632.613738
 20
310.84452
 30
6.771924
 70
    64
  0
VERTEX
  8
I-SINK
  5
62C
 10
632.613738
 20
316.905931
 30
7.978528
 70
    64
  0
VERTEX
  8
I-SINK
  5
62D
 10
632.613738
 20
322.51894
 30
5.391884
 70
    64
  0
VERTEX
  8
I-SINK
  5
62E
 10
632.613738
 20
325.539568
 30
0.0
 70
    64
  0
VERTEX
  8
I-SINK
  5
62F
 10
588.714109
 20
311.703925
 30
-3.904653
 70
    64
  0
VERTEX
  8
I-SINK
  5
630
 10
588.901891
 20
312.404733
 30
2.232953
 70
    64
  0
VERTEX
  8
I-SINK
  5
631
 10
589.987523
 20
316.456368
 30
6.771924
 70
    64
  0
VERTEX
  8
I-SINK
  5
632
 10
591.556331
 20
322.311241
 30
7.978528
 70
    64
  0
VERTEX
  8
I-SINK
  5
633
 10
593.009085
 20
327.732992
 30
5.391884
 70
    64
  0
VERTEX
  8
I-SINK
  5
634
 10
593.790881
 20
330.650694
 30
0.0
 70
    64
  0
VERTEX
  8
I-SINK
  5
635
 10
547.806168
 20
328.648549
 30
-3.904653
 70
    64
  0
VERTEX
  8
I-SINK
  5
636
 10
548.168933
 20
329.276876
 30
2.232953
 70
    64
  0
VERTEX
  8
I-SINK
  5
637
 10
550.266214
 20
332.909472
 30
6.771924
 70
    64
  0
VERTEX
  8
I-SINK
  5
638
 10
553.296919
 20
338.158809
 30
7.978528
 70
    64
  0
VERTEX
  8
I-SINK
  5
639
 10
556.103424
 20
343.019817
 30
5.391884
 70
    64
  0
VERTEX
  8
I-SINK
  5
63A
 10
557.613738
 20
345.635758
 30
0.0
 70
    64
  0
VERTEX
  8
I-SINK
  5
63B
 10
512.677723
 20
355.603553
 30
-3.904653
 70
    64
  0
VERTEX
  8
I-SINK
  5
63C
 10
513.19075
 20
356.11658
 30
2.232953
 70
    64
  0
VERTEX
  8
I-SINK
  5
63D
 10
516.156752
 20
359.082583
 30
6.771924
 70
    64
  0
VERTEX
  8
I-SINK
  5
63E
 10
520.442817
 20
363.368648
 30
7.978528
 70
    64
  0
VERTEX
  8
I-SINK
  5
63F
 10
524.411814
 20
367.337644
 30
5.391884
 70
    64
  0
VERTEX
  8
I-SINK
  5
640
 10
526.547721
 20
369.473551
 30
0.0
 70
    64
  0
VERTEX
  8
I-SINK
  5
641
 10
485.722718
 20
390.731999
 30
-3.904653
 70
    64
  0
VERTEX
  8
I-SINK
  5
642
 10
486.351046
 20
391.094764
 30
2.232953
 70
    64
  0
VERTEX
  8
I-SINK
  5
643
 10
489.983642
 20
393.192044
 30
6.771924
 70
    64
  0
VERTEX
  8
I-SINK
  5
644
 10
495.232978
 20
396.22275
 30
7.978528
 70
    64
  0
VERTEX
  8
I-SINK
  5
645
 10
500.093987
 20
399.029254
 30
5.391884
 70
    64
  0
VERTEX
  8
I-SINK
  5
646
 10
502.709927
 20
400.539568
 30
0.0
 70
    64
  0
VERTEX
  8
I-SINK
  5
647
 10
468.778094
 20
431.63994
 30
-3.904653
 70
    64
  0
VERTEX
  8
I-SINK
  5
648
 10
469.478903
 20
431.827721
 30
2.232953
 70
    64
  0
VERTEX
  8
I-SINK
  5
649
 10
473.530537
 20
432.913353
 30
6.771924
 70
    64
  0
VERTEX
  8
I-SINK
  5
64A
 10
479.385411
 20
434.482162
 30
7.978528
 70
    64
  0
VERTEX
  8
I-SINK
  5
64B
 10
484.807161
 20
435.934915
 30
5.391884
 70
    64
  0
VERTEX
  8
I-SINK
  5
64C
 10
487.724864
 20
436.716711
 30
0.0
 70
    64
  0
VERTEX
  8
I-SINK
  5
64D
 10
462.998599
 20
475.539568
 30
-3.904653
 70
    64
  0
VERTEX
  8
I-SINK
  5
64E
 10
463.724129
 20
475.539568
 30
2.232953
 70
    64
  0
VERTEX
  8
I-SINK
  5
64F
 10
467.91869
 20
475.539568
 30
6.771924
 70
    64
  0
VERTEX
  8
I-SINK
  5
650
 10
473.980101
 20
475.539568
 30
7.978528
 70
    64
  0
VERTEX
  8
I-SINK
  5
651
 10
479.59311
 20
475.539568
 30
5.391884
 70
    64
  0
VERTEX
  8
I-SINK
  5
652
 10
482.613738
 20
475.539568
 30
0.0
 70
    64
  0
VERTEX
  8
I-SINK
  5
653
 10
468.778094
 20
519.439196
 30
-3.904653
 70
    64
  0
VERTEX
  8
I-SINK
  5
654
 10
469.478903
 20
519.251415
 30
2.232953
 70
    64
  0
VERTEX
  8
I-SINK
  5
655
 10
473.530537
 20
518.165783
 30
6.771924
 70
    64
  0
VERTEX
  8
I-SINK
  5
656
 10
479.385411
 20
516.596975
 30
7.978528
 70
    64
  0
VERTEX
  8
I-SINK
  5
657
 10
484.807161
 20
515.144221
 30
5.391884
 70
    64
  0
VERTEX
  8
I-SINK
  5
658
 10
487.724864
 20
514.362425
 30
0.0
 70
    64
  0
VERTEX
  8
I-SINK
  5
659
 10
485.722718
 20
560.347138
 30
-3.904653
 70
    64
  0
VERTEX
  8
I-SINK
  5
65A
 10
486.351046
 20
559.984373
 30
2.232953
 70
    64
  0
VERTEX
  8
I-SINK
  5
65B
 10
489.983642
 20
557.887092
 30
6.771924
 70
    64
  0
VERTEX
  8
I-SINK
  5
65C
 10
495.232978
 20
554.856387
 30
7.978528
 70
    64
  0
VERTEX
  8
I-SINK
  5
65D
 10
500.093987
 20
552.049882
 30
5.391884
 70
    64
  0
VERTEX
  8
I-SINK
  5
65E
 10
502.709927
 20
550.539568
 30
0.0
 70
    64
  0
VERTEX
  8
I-SINK
  5
65F
 10
512.677723
 20
595.475583
 30
-3.904653
 70
    64
  0
VERTEX
  8
I-SINK
  5
660
 10
513.19075
 20
594.962556
 30
2.232953
 70
    64
  0
VERTEX
  8
I-SINK
  5
661
 10
516.156752
 20
591.996554
 30
6.771924
 70
    64
  0
VERTEX
  8
I-SINK
  5
662
 10
520.442817
 20
587.710488
 30
7.978528
 70
    64
  0
VERTEX
  8
I-SINK
  5
663
 10
524.411814
 20
583.741492
 30
5.391884
 70
    64
  0
VERTEX
  8
I-SINK
  5
664
 10
526.547721
 20
581.605585
 30
0.0
 70
    64
  0
VERTEX
  8
I-SINK
  5
665
 10
547.806168
 20
622.430587
 30
-3.904653
 70
    64
  0
VERTEX
  8
I-SINK
  5
666
 10
548.168933
 20
621.80226
 30
2.232953
 70
    64
  0
VERTEX
  8
I-SINK
  5
667
 10
550.266214
 20
618.169664
 30
6.771924
 70
    64
  0
VERTEX
  8
I-SINK
  5
668
 10
553.296919
 20
612.920328
 30
7.978528
 70
    64
  0
VERTEX
  8
I-SINK
  5
669
 10
556.103424
 20
608.059319
 30
5.391884
 70
    64
  0
VERTEX
  8
I-SINK
  5
66A
 10
557.613738
 20
605.443379
 30
0.0
 70
    64
  0
VERTEX
  8
I-SINK
  5
66B
 10
588.714109
 20
639.375211
 30
-3.904653
 70
    64
  0
VERTEX
  8
I-SINK
  5
66C
 10
588.901891
 20
638.674403
 30
2.232953
 70
    64
  0
VERTEX
  8
I-SINK
  5
66D
 10
589.987523
 20
634.622769
 30
6.771924
 70
    64
  0
VERTEX
  8
I-SINK
  5
66E
 10
591.556331
 20
628.767895
 30
7.978528
 70
    64
  0
VERTEX
  8
I-SINK
  5
66F
 10
593.009085
 20
623.346145
 30
5.391884
 70
    64
  0
VERTEX
  8
I-SINK
  5
670
 10
593.790881
 20
620.428442
 30
0.0
 70
    64
  0
VERTEX
  8
I-SINK
  5
671
 10
632.613738
 20
645.154707
 30
-3.904653
 70
    64
  0
VERTEX
  8
I-SINK
  5
672
 10
632.613738
 20
644.429177
 30
2.232953
 70
    64
  0
VERTEX
  8
I-SINK
  5
673
 10
632.613738
 20
640.234616
 30
6.771924
 70
    64
  0
VERTEX
  8
I-SINK
  5
674
 10
632.613738
 20
634.173205
 30
7.978528
 70
    64
  0
VERTEX
  8
I-SINK
  5
675
 10
632.613738
 20
628.560196
 30
5.391884
 70
    64
  0
VERTEX
  8
I-SINK
  5
676
 10
632.613738
 20
625.539568
 30
0.0
 70
    64
  0
VERTEX
  8
I-SINK
  5
677
 10
676.513366
 20
639.375211
 30
-3.904653
 70
    64
  0
VERTEX
  8
I-SINK
  5
678
 10
676.325585
 20
638.674403
 30
2.232953
 70
    64
  0
VERTEX
  8
I-SINK
  5
679
 10
675.239953
 20
634.622769
 30
6.771924
 70
    64
  0
VERTEX
  8
I-SINK
  5
67A
 10
673.671144
 20
628.767895
 30
7.978528
 70
    64
  0
VERTEX
  8
I-SINK
  5
67B
 10
672.218391
 20
623.346145
 30
5.391884
 70
    64
  0
VERTEX
  8
I-SINK
  5
67C
 10
671.436595
 20
620.428442
 30
0.0
 70
    64
  0
VERTEX
  8
I-SINK
  5
67D
 10
717.421307
 20
622.430587
 30
-3.904653
 70
    64
  0
VERTEX
  8
I-SINK
  5
67E
 10
717.058542
 20
621.80226
 30
2.232953
 70
    64
  0
VERTEX
  8
I-SINK
  5
67F
 10
714.961262
 20
618.169664
 30
6.771924
 70
    64
  0
VERTEX
  8
I-SINK
  5
680
 10
711.930556
 20
612.920328
 30
7.978528
 70
    64
  0
VERTEX
  8
I-SINK
  5
681
 10
709.124052
 20
608.059319
 30
5.391884
 70
    64
  0
VERTEX
  8
I-SINK
  5
682
 10
707.613738
 20
605.443379
 30
0.0
 70
    64
  0
VERTEX
  8
I-SINK
  5
683
 10
752.549753
 20
595.475583
 30
-3.904653
 70
    64
  0
VERTEX
  8
I-SINK
  5
684
 10
752.036725
 20
594.962556
 30
2.232953
 70
    64
  0
VERTEX
  8
I-SINK
  5
685
 10
749.070723
 20
591.996554
 30
6.771924
 70
    64
  0
VERTEX
  8
I-SINK
  5
686
 10
744.784658
 20
587.710488
 30
7.978528
 70
    64
  0
VERTEX
  8
I-SINK
  5
687
 10
740.815661
 20
583.741492
 30
5.391884
 70
    64
  0
VERTEX
  8
I-SINK
  5
688
 10
738.679755
 20
581.605585
 30
0.0
 70
    64
  0
VERTEX
  8
I-SINK
  5
689
 10
779.504757
 20
560.347138
 30
-3.904653
 70
    64
  0
VERTEX
  8
I-SINK
  5
68A
 10
778.876429
 20
559.984373
 30
2.232953
 70
    64
  0
VERTEX
  8
I-SINK
  5
68B
 10
775.243833
 20
557.887092
 30
6.771924
 70
    64
  0
VERTEX
  8
I-SINK
  5
68C
 10
769.994497
 20
554.856387
 30
7.978528
 70
    64
  0
VERTEX
  8
I-SINK
  5
68D
 10
765.133489
 20
552.049882
 30
5.391884
 70
    64
  0
VERTEX
  8
I-SINK
  5
68E
 10
762.517548
 20
550.539568
 30
0.0
 70
    64
  0
VERTEX
  8
I-SINK
  5
68F
 10
796.449381
 20
519.439196
 30
-3.904653
 70
    64
  0
VERTEX
  8
I-SINK
  5
690
 10
795.748573
 20
519.251415
 30
2.232953
 70
    64
  0
VERTEX
  8
I-SINK
  5
691
 10
791.696938
 20
518.165783
 30
6.771924
 70
    64
  0
VERTEX
  8
I-SINK
  5
692
 10
785.842065
 20
516.596975
 30
7.978528
 70
    64
  0
VERTEX
  8
I-SINK
  5
693
 10
780.420314
 20
515.144221
 30
5.391884
 70
    64
  0
VERTEX
  8
I-SINK
  5
694
 10
777.502612
 20
514.362425
 30
0.0
 70
    64
  0
SEQEND
  8
I-SINK
  5
695
  0
POLYLINE
  8
I-SINK
  5
696
 66
     1
 10
0.0
 20
0.0
 30
0.0
 70
    17
 71
    24
 72
     4
  0
VERTEX
  8
I-SINK
  5
697
 10
653.521201
 20
475.539568
 30
-470.0
 70
    64
  0
VERTEX
  8
I-SINK
  5
698
 10
663.29261
 20
475.539568
 30
-467.450489
 70
    64
  0
VERTEX
  8
I-SINK
  5
699
 10
670.572787
 20
475.539568
 30
-460.451957
 70
    64
  0
VERTEX
  8
I-SINK
  5
69A
 10
673.505645
 20
475.539568
 30
-450.788688
 70
    64
  0
VERTEX
  8
I-SINK
  5
69B
 10
652.808797
 20
480.950818
 30
-470.0
 70
    64
  0
VERTEX
  8
I-SINK
  5
69C
 10
662.247253
 20
483.479844
 30
-467.450489
 70
    64
  0
VERTEX
  8
I-SINK
  5
69D
 10
669.279364
 20
485.364093
 30
-460.451957
 70
    64
  0
VERTEX
  8
I-SINK
  5
69E
 10
672.112287
 20
486.123172
 30
-450.788688
 70
    64
  0
VERTEX
  8
I-SINK
  5
69F
 10
650.720132
 20
485.9933
 30
-470.0
 70
    64
  0
VERTEX
  8
I-SINK
  5
6A0
 10
659.18242
 20
490.879004
 30
-467.450489
 70
    64
  0
VERTEX
  8
I-SINK
  5
6A1
 10
665.487239
 20
494.519093
 30
-460.451957
 70
    64
  0
VERTEX
  8
I-SINK
  5
6A2
 10
668.027168
 20
495.985521
 30
-450.788688
 70
    64
  0
VERTEX
  8
I-SINK
  5
6A3
 10
647.397547
 20
490.323377
 30
-470.0
 70
    64
  0
VERTEX
  8
I-SINK
  5
6A4
 10
654.306976
 20
497.232807
 30
-467.450489
 70
    64
  0
VERTEX
  8
I-SINK
  5
6A5
 10
659.454839
 20
502.380669
 30
-460.451957
 70
    64
  0
VERTEX
  8
I-SINK
  5
6A6
 10
661.528682
 20
504.454513
 30
-450.788688
 70
    64
  0
VERTEX
  8
I-SINK
  5
6A7
 10
643.06747
 20
493.645963
 30
-470.0
 70
    64
  0
VERTEX
  8
I-SINK
  5
6A8
 10
647.953174
 20
502.108251
 30
-467.450489
 70
    64
  0
VERTEX
  8
I-SINK
  5
6A9
 10
651.593263
 20
508.413069
 30
-460.451957
 70
    64
  0
VERTEX
  8
I-SINK
  5
6AA
 10
653.059691
 20
510.952998
 30
-450.788688
 70
    64
  0
VERTEX
  8
I-SINK
  5
6AB
 10
638.024988
 20
495.734627
 30
-470.0
 70
    64
  0
VERTEX
  8
I-SINK
  5
6AC
 10
640.554014
 20
505.173083
 30
-467.450489
 70
    64
  0
VERTEX
  8
I-SINK
  5
6AD
 10
642.438263
 20
512.205194
 30
-460.451957
 70
    64
  0
VERTEX
  8
I-SINK
  5
6AE
 10
643.197342
 20
515.038117
 30
-450.788688
 70
    64
  0
VERTEX
  8
I-SINK
  5
6AF
 10
632.613738
 20
496.447032
 30
-470.0
 70
    64
  0
VERTEX
  8
I-SINK
  5
6B0
 10
632.613738
 20
506.21844
 30
-467.450489
 70
    64
  0
VERTEX
  8
I-SINK
  5
6B1
 10
632.613738
 20
513.498618
 30
-460.451957
 70
    64
  0
VERTEX
  8
I-SINK
  5
6B2
 10
632.613738
 20
516.431475
 30
-450.788688
 70
    64
  0
VERTEX
  8
I-SINK
  5
6B3
 10
627.202488
 20
495.734627
 30
-470.0
 70
    64
  0
VERTEX
  8
I-SINK
  5
6B4
 10
624.673461
 20
505.173083
 30
-467.450489
 70
    64
  0
VERTEX
  8
I-SINK
  5
6B5
 10
622.789213
 20
512.205194
 30
-460.451957
 70
    64
  0
VERTEX
  8
I-SINK
  5
6B6
 10
622.030134
 20
515.038117
 30
-450.788688
 70
    64
  0
VERTEX
  8
I-SINK
  5
6B7
 10
622.160006
 20
493.645963
 30
-470.0
 70
    64
  0
VERTEX
  8
I-SINK
  5
6B8
 10
617.274302
 20
502.108251
 30
-467.450489
 70
    64
  0
VERTEX
  8
I-SINK
  5
6B9
 10
613.634213
 20
508.413069
 30
-460.451957
 70
    64
  0
VERTEX
  8
I-SINK
  5
6BA
 10
612.167784
 20
510.952998
 30
-450.788688
 70
    64
  0
VERTEX
  8
I-SINK
  5
6BB
 10
617.829929
 20
490.323377
 30
-470.0
 70
    64
  0
VERTEX
  8
I-SINK
  5
6BC
 10
610.920499
 20
497.232807
 30
-467.450489
 70
    64
  0
VERTEX
  8
I-SINK
  5
6BD
 10
605.772636
 20
502.380669
 30
-460.451957
 70
    64
  0
VERTEX
  8
I-SINK
  5
6BE
 10
603.698793
 20
504.454513
 30
-450.788688
 70
    64
  0
VERTEX
  8
I-SINK
  5
6BF
 10
614.507343
 20
485.9933
 30
-470.0
 70
    64
  0
VERTEX
  8
I-SINK
  5
6C0
 10
606.045055
 20
490.879004
 30
-467.450489
 70
    64
  0
VERTEX
  8
I-SINK
  5
6C1
 10
599.740237
 20
494.519093
 30
-460.451957
 70
    64
  0
VERTEX
  8
I-SINK
  5
6C2
 10
597.200308
 20
495.985521
 30
-450.788688
 70
    64
  0
VERTEX
  8
I-SINK
  5
6C3
 10
612.418679
 20
480.950818
 30
-470.0
 70
    64
  0
VERTEX
  8
I-SINK
  5
6C4
 10
602.980223
 20
483.479844
 30
-467.450489
 70
    64
  0
VERTEX
  8
I-SINK
  5
6C5
 10
595.948111
 20
485.364093
 30
-460.451957
 70
    64
  0
VERTEX
  8
I-SINK
  5
6C6
 10
593.115189
 20
486.123172
 30
-450.788688
 70
    64
  0
VERTEX
  8
I-SINK
  5
6C7
 10
611.706274
 20
475.539568
 30
-470.0
 70
    64
  0
VERTEX
  8
I-SINK
  5
6C8
 10
601.934866
 20
475.539568
 30
-467.450489
 70
    64
  0
VERTEX
  8
I-SINK
  5
6C9
 10
594.654688
 20
475.539568
 30
-460.451957
 70
    64
  0
VERTEX
  8
I-SINK
  5
6CA
 10
591.721831
 20
475.539568
 30
-450.788688
 70
    64
  0
VERTEX
  8
I-SINK
  5
6CB
 10
612.418679
 20
470.128318
 30
-470.0
 70
    64
  0
VERTEX
  8
I-SINK
  5
6CC
 10
602.980223
 20
467.599292
 30
-467.450489
 70
    64
  0
VERTEX
  8
I-SINK
  5
6CD
 10
595.948111
 20
465.715043
 30
-460.451957
 70
    64
  0
VERTEX
  8
I-SINK
  5
6CE
 10
593.115189
 20
464.955964
 30
-450.788688
 70
    64
  0
VERTEX
  8
I-SINK
  5
6CF
 10
614.507343
 20
465.085836
 30
-470.0
 70
    64
  0
VERTEX
  8
I-SINK
  5
6D0
 10
606.045055
 20
460.200132
 30
-467.450489
 70
    64
  0
VERTEX
  8
I-SINK
  5
6D1
 10
599.740237
 20
456.560043
 30
-460.451957
 70
    64
  0
VERTEX
  8
I-SINK
  5
6D2
 10
597.200308
 20
455.093615
 30
-450.788688
 70
    64
  0
VERTEX
  8
I-SINK
  5
6D3
 10
617.829929
 20
460.755759
 30
-470.0
 70
    64
  0
VERTEX
  8
I-SINK
  5
6D4
 10
610.920499
 20
453.84633
 30
-467.450489
 70
    64
  0
VERTEX
  8
I-SINK
  5
6D5
 10
605.772636
 20
448.698467
 30
-460.451957
 70
    64
  0
VERTEX
  8
I-SINK
  5
6D6
 10
603.698793
 20
446.624624
 30
-450.788688
 70
    64
  0
VERTEX
  8
I-SINK
  5
6D7
 10
622.160006
 20
457.433174
 30
-470.0
 70
    64
  0
VERTEX
  8
I-SINK
  5
6D8
 10
617.274302
 20
448.970885
 30
-467.450489
 70
    64
  0
VERTEX
  8
I-SINK
  5
6D9
 10
613.634213
 20
442.666067
 30
-460.451957
 70
    64
  0
VERTEX
  8
I-SINK
  5
6DA
 10
612.167784
 20
440.126138
 30
-450.788688
 70
    64
  0
VERTEX
  8
I-SINK
  5
6DB
 10
627.202488
 20
455.344509
 30
-470.0
 70
    64
  0
VERTEX
  8
I-SINK
  5
6DC
 10
624.673461
 20
445.906053
 30
-467.450489
 70
    64
  0
VERTEX
  8
I-SINK
  5
6DD
 10
622.789213
 20
438.873942
 30
-460.451957
 70
    64
  0
VERTEX
  8
I-SINK
  5
6DE
 10
622.030134
 20
436.041019
 30
-450.788688
 70
    64
  0
VERTEX
  8
I-SINK
  5
6DF
 10
632.613738
 20
454.632105
 30
-470.0
 70
    64
  0
VERTEX
  8
I-SINK
  5
6E0
 10
632.613738
 20
444.860696
 30
-467.450489
 70
    64
  0
VERTEX
  8
I-SINK
  5
6E1
 10
632.613738
 20
437.580518
 30
-460.451957
 70
    64
  0
VERTEX
  8
I-SINK
  5
6E2
 10
632.613738
 20
434.647661
 30
-450.788688
 70
    64
  0
VERTEX
  8
I-SINK
  5
6E3
 10
638.024988
 20
455.344509
 30
-470.0
 70
    64
  0
VERTEX
  8
I-SINK
  5
6E4
 10
640.554014
 20
445.906053
 30
-467.450489
 70
    64
  0
VERTEX
  8
I-SINK
  5
6E5
 10
642.438263
 20
438.873942
 30
-460.451957
 70
    64
  0
VERTEX
  8
I-SINK
  5
6E6
 10
643.197342
 20
436.041019
 30
-450.788688
 70
    64
  0
VERTEX
  8
I-SINK
  5
6E7
 10
643.06747
 20
457.433174
 30
-470.0
 70
    64
  0
VERTEX
  8
I-SINK
  5
6E8
 10
647.953174
 20
448.970885
 30
-467.450489
 70
    64
  0
VERTEX
  8
I-SINK
  5
6E9
 10
651.593263
 20
442.666067
 30
-460.451957
 70
    64
  0
VERTEX
  8
I-SINK
  5
6EA
 10
653.059691
 20
440.126138
 30
-450.788688
 70
    64
  0
VERTEX
  8
I-SINK
  5
6EB
 10
647.397547
 20
460.755759
 30
-470.0
 70
    64
  0
VERTEX
  8
I-SINK
  5
6EC
 10
654.306976
 20
453.84633
 30
-467.450489
 70
    64
  0
VERTEX
  8
I-SINK
  5
6ED
 10
659.454839
 20
448.698467
 30
-460.451957
 70
    64
  0
VERTEX
  8
I-SINK
  5
6EE
 10
661.528682
 20
446.624624
 30
-450.788688
 70
    64
  0
VERTEX
  8
I-SINK
  5
6EF
 10
650.720132
 20
465.085836
 30
-470.0
 70
    64
  0
VERTEX
  8
I-SINK
  5
6F0
 10
659.18242
 20
460.200132
 30
-467.450489
 70
    64
  0
VERTEX
  8
I-SINK
  5
6F1
 10
665.487239
 20
456.560043
 30
-460.451957
 70
    64
  0
VERTEX
  8
I-SINK
  5
6F2
 10
668.027168
 20
455.093615
 30
-450.788688
 70
    64
  0
VERTEX
  8
I-SINK
  5
6F3
 10
652.808797
 20
470.128318
 30
-470.0
 70
    64
  0
VERTEX
  8
I-SINK
  5
6F4
 10
662.247253
 20
467.599292
 30
-467.450489
 70
    64
  0
VERTEX
  8
I-SINK
  5
6F5
 10
669.279364
 20
465.715043
 30
-460.451957
 70
    64
  0
VERTEX
  8
I-SINK
  5
6F6
 10
672.112287
 20
464.955964
 30
-450.788688
 70
    64
  0
SEQEND
  8
I-SINK
  5
6F7
  0
POLYLINE
  8
I-SINK
  5
6F8
 66
     1
 10
0.0
 20
0.0
 30
0.0
 70
    17
 71
    24
 72
     3
  0
VERTEX
  8
I-SINK
  5
6F9
 10
632.613738
 20
475.539568
 30
-470.0
 70
    64
  0
VERTEX
  8
I-SINK
  5
6FA
 10
643.06747
 20
475.539568
 30
-470.0
 70
    64
  0
VERTEX
  8
I-SINK
  5
6FB
 10
653.521201
 20
475.539568
 30
-470.0
 70
    64
  0
VERTEX
  8
I-SINK
  5
6FC
 10
632.613738
 20
475.539568
 30
-470.0
 70
    64
  0
VERTEX
  8
I-SINK
  5
6FD
 10
642.711267
 20
478.245193
 30
-470.0
 70
    64
  0
VERTEX
  8
I-SINK
  5
6FE
 10
652.808797
 20
480.950818
 30
-470.0
 70
    64
  0
VERTEX
  8
I-SINK
  5
6FF
 10
632.613738
 20
475.539568
 30
-470.0
 70
    64
  0
VERTEX
  8
I-SINK
  5
700
 10
641.666935
 20
480.766434
 30
-470.0
 70
    64
  0
VERTEX
  8
I-SINK
  5
701
 10
650.720132
 20
485.9933
 30
-470.0
 70
    64
  0
VERTEX
  8
I-SINK
  5
702
 10
632.613738
 20
475.539568
 30
-470.0
 70
    64
  0
VERTEX
  8
I-SINK
  5
703
 10
640.005642
 20
482.931473
 30
-470.0
 70
    64
  0
VERTEX
  8
I-SINK
  5
704
 10
647.397547
 20
490.323377
 30
-470.0
 70
    64
  0
VERTEX
  8
I-SINK
  5
705
 10
632.613738
 20
475.539568
 30
-470.0
 70
    64
  0
VERTEX
  8
I-SINK
  5
706
 10
637.840604
 20
484.592765
 30
-470.0
 70
    64
  0
VERTEX
  8
I-SINK
  5
707
 10
643.06747
 20
493.645963
 30
-470.0
 70
    64
  0
VERTEX
  8
I-SINK
  5
708
 10
632.613738
 20
475.539568
 30
-470.0
 70
    64
  0
VERTEX
  8
I-SINK
  5
709
 10
635.319363
 20
485.637098
 30
-470.0
 70
    64
  0
VERTEX
  8
I-SINK
  5
70A
 10
638.024988
 20
495.734627
 30
-470.0
 70
    64
  0
VERTEX
  8
I-SINK
  5
70B
 10
632.613738
 20
475.539568
 30
-470.0
 70
    64
  0
VERTEX
  8
I-SINK
  5
70C
 10
632.613738
 20
485.9933
 30
-470.0
 70
    64
  0
VERTEX
  8
I-SINK
  5
70D
 10
632.613738
 20
496.447032
 30
-470.0
 70
    64
  0
VERTEX
  8
I-SINK
  5
70E
 10
632.613738
 20
475.539568
 30
-470.0
 70
    64
  0
VERTEX
  8
I-SINK
  5
70F
 10
629.908113
 20
485.637098
 30
-470.0
 70
    64
  0
VERTEX
  8
I-SINK
  5
710
 10
627.202488
 20
495.734627
 30
-470.0
 70
    64
  0
VERTEX
  8
I-SINK
  5
711
 10
632.613738
 20
475.539568
 30
-470.0
 70
    64
  0
VERTEX
  8
I-SINK
  5
712
 10
627.386872
 20
484.592765
 30
-470.0
 70
    64
  0
VERTEX
  8
I-SINK
  5
713
 10
622.160006
 20
493.645963
 30
-470.0
 70
    64
  0
VERTEX
  8
I-SINK
  5
714
 10
632.613738
 20
475.539568
 30
-470.0
 70
    64
  0
VERTEX
  8
I-SINK
  5
715
 10
625.221833
 20
482.931473
 30
-470.0
 70
    64
  0
VERTEX
  8
I-SINK
  5
716
 10
617.829929
 20
490.323377
 30
-470.0
 70
    64
  0
VERTEX
  8
I-SINK
  5
717
 10
632.613738
 20
475.539568
 30
-470.0
 70
    64
  0
VERTEX
  8
I-SINK
  5
718
 10
623.560541
 20
480.766434
 30
-470.0
 70
    64
  0
VERTEX
  8
I-SINK
  5
719
 10
614.507343
 20
485.9933
 30
-470.0
 70
    64
  0
VERTEX
  8
I-SINK
  5
71A
 10
632.613738
 20
475.539568
 30
-470.0
 70
    64
  0
VERTEX
  8
I-SINK
  5
71B
 10
622.516208
 20
478.245193
 30
-470.0
 70
    64
  0
VERTEX
  8
I-SINK
  5
71C
 10
612.418679
 20
480.950818
 30
-470.0
 70
    64
  0
VERTEX
  8
I-SINK
  5
71D
 10
632.613738
 20
475.539568
 30
-470.0
 70
    64
  0
VERTEX
  8
I-SINK
  5
71E
 10
622.160006
 20
475.539568
 30
-470.0
 70
    64
  0
VERTEX
  8
I-SINK
  5
71F
 10
611.706274
 20
475.539568
 30
-470.0
 70
    64
  0
VERTEX
  8
I-SINK
  5
720
 10
632.613738
 20
475.539568
 30
-470.0
 70
    64
  0
VERTEX
  8
I-SINK
  5
721
 10
622.516208
 20
472.833943
 30
-470.0
 70
    64
  0
VERTEX
  8
I-SINK
  5
722
 10
612.418679
 20
470.128318
 30
-470.0
 70
    64
  0
VERTEX
  8
I-SINK
  5
723
 10
632.613738
 20
475.539568
 30
-470.0
 70
    64
  0
VERTEX
  8
I-SINK
  5
724
 10
623.560541
 20
470.312702
 30
-470.0
 70
    64
  0
VERTEX
  8
I-SINK
  5
725
 10
614.507343
 20
465.085836
 30
-470.0
 70
    64
  0
VERTEX
  8
I-SINK
  5
726
 10
632.613738
 20
475.539568
 30
-470.0
 70
    64
  0
VERTEX
  8
I-SINK
  5
727
 10
625.221833
 20
468.147663
 30
-470.0
 70
    64
  0
VERTEX
  8
I-SINK
  5
728
 10
617.829929
 20
460.755759
 30
-470.0
 70
    64
  0
VERTEX
  8
I-SINK
  5
729
 10
632.613738
 20
475.539568
 30
-470.0
 70
    64
  0
VERTEX
  8
I-SINK
  5
72A
 10
627.386872
 20
466.486371
 30
-470.0
 70
    64
  0
VERTEX
  8
I-SINK
  5
72B
 10
622.160006
 20
457.433174
 30
-470.0
 70
    64
  0
VERTEX
  8
I-SINK
  5
72C
 10
632.613738
 20
475.539568
 30
-470.0
 70
    64
  0
VERTEX
  8
I-SINK
  5
72D
 10
629.908113
 20
465.442039
 30
-470.0
 70
    64
  0
VERTEX
  8
I-SINK
  5
72E
 10
627.202488
 20
455.344509
 30
-470.0
 70
    64
  0
VERTEX
  8
I-SINK
  5
72F
 10
632.613738
 20
475.539568
 30
-470.0
 70
    64
  0
VERTEX
  8
I-SINK
  5
730
 10
632.613738
 20
465.085836
 30
-470.0
 70
    64
  0
VERTEX
  8
I-SINK
  5
731
 10
632.613738
 20
454.632105
 30
-470.0
 70
    64
  0
VERTEX
  8
I-SINK
  5
732
 10
632.613738
 20
475.539568
 30
-470.0
 70
    64
  0
VERTEX
  8
I-SINK
  5
733
 10
635.319363
 20
465.442039
 30
-470.0
 70
    64
  0
VERTEX
  8
I-SINK
  5
734
 10
638.024988
 20
455.344509
 30
-470.0
 70
    64
  0
VERTEX
  8
I-SINK
  5
735
 10
632.613738
 20
475.539568
 30
-470.0
 70
    64
  0
VERTEX
  8
I-SINK
  5
736
 10
637.840604
 20
466.486371
 30
-470.0
 70
    64
  0
VERTEX
  8
I-SINK
  5
737
 10
643.06747
 20
457.433174
 30
-470.0
 70
    64
  0
VERTEX
  8
I-SINK
  5
738
 10
632.613738
 20
475.539568
 30
-470.0
 70
    64
  0
VERTEX
  8
I-SINK
  5
739
 10
640.005642
 20
468.147663
 30
-470.0
 70
    64
  0
VERTEX
  8
I-SINK
  5
73A
 10
647.397547
 20
460.755759
 30
-470.0
 70
    64
  0
VERTEX
  8
I-SINK
  5
73B
 10
632.613738
 20
475.539568
 30
-470.0
 70
    64
  0
VERTEX
  8
I-SINK
  5
73C
 10
641.666935
 20
470.312702
 30
-470.0
 70
    64
  0
VERTEX
  8
I-SINK
  5
73D
 10
650.720132
 20
465.085836
 30
-470.0
 70
    64
  0
VERTEX
  8
I-SINK
  5
73E
 10
632.613738
 20
475.539568
 30
-470.0
 70
    64
  0
VERTEX
  8
I-SINK
  5
73F
 10
642.711267
 20
472.833943
 30
-470.0
 70
    64
  0
VERTEX
  8
I-SINK
  5
740
 10
652.808797
 20
470.128318
 30
-470.0
 70
    64
  0
SEQEND
  8
I-SINK
  5
741
  0
POLYLINE
  8
I-SINK
  5
742
 66
     1
 10
0.0
 20
0.0
 30
0.0
 70
    17
 71
    24
 72
     3
  0
VERTEX
  8
I-SINK
  5
743
 10
673.505645
 20
475.539568
 30
-450.788688
 70
    64
  0
VERTEX
  8
I-SINK
  5
744
 10
678.059691
 20
475.539568
 30
-335.394344
 70
    64
  0
VERTEX
  8
I-SINK
  5
745
 10
682.613738
 20
475.539568
 30
-220.0
 70
    64
  0
VERTEX
  8
I-SINK
  5
746
 10
672.112287
 20
486.123172
 30
-450.788688
 70
    64
  0
VERTEX
  8
I-SINK
  5
747
 10
676.511158
 20
487.301846
 30
-335.394344
 70
    64
  0
VERTEX
  8
I-SINK
  5
748
 10
680.910029
 20
488.48052
 30
-220.0
 70
    64
  0
VERTEX
  8
I-SINK
  5
749
 10
668.027168
 20
495.985521
 30
-450.788688
 70
    64
  0
VERTEX
  8
I-SINK
  5
74A
 10
671.971088
 20
498.262545
 30
-335.394344
 70
    64
  0
VERTEX
  8
I-SINK
  5
74B
 10
675.915008
 20
500.539568
 30
-220.0
 70
    64
  0
VERTEX
  8
I-SINK
  5
74C
 10
661.528682
 20
504.454513
 30
-450.788688
 70
    64
  0
VERTEX
  8
I-SINK
  5
74D
 10
664.74888
 20
507.67471
 30
-335.394344
 70
    64
  0
VERTEX
  8
I-SINK
  5
74E
 10
667.969077
 20
510.894907
 30
-220.0
 70
    64
  0
VERTEX
  8
I-SINK
  5
74F
 10
653.059691
 20
510.952998
 30
-450.788688
 70
    64
  0
VERTEX
  8
I-SINK
  5
750
 10
655.336715
 20
514.896918
 30
-335.394344
 70
    64
  0
VERTEX
  8
I-SINK
  5
751
 10
657.613738
 20
518.840838
 30
-220.0
 70
    64
  0
VERTEX
  8
I-SINK
  5
752
 10
643.197342
 20
515.038117
 30
-450.788688
 70
    64
  0
VERTEX
  8
I-SINK
  5
753
 10
644.376016
 20
519.436988
 30
-335.394344
 70
    64
  0
VERTEX
  8
I-SINK
  5
754
 10
645.55469
 20
523.835859
 30
-220.0
 70
    64
  0
VERTEX
  8
I-SINK
  5
755
 10
632.613738
 20
516.431475
 30
-450.788688
 70
    64
  0
VERTEX
  8
I-SINK
  5
756
 10
632.613738
 20
520.985521
 30
-335.394344
 70
    64
  0
VERTEX
  8
I-SINK
  5
757
 10
632.613738
 20
525.539568
 30
-220.0
 70
    64
  0
VERTEX
  8
I-SINK
  5
758
 10
622.030134
 20
515.038117
 30
-450.788688
 70
    64
  0
VERTEX
  8
I-SINK
  5
759
 10
620.85146
 20
519.436988
 30
-335.394344
 70
    64
  0
VERTEX
  8
I-SINK
  5
75A
 10
619.672786
 20
523.835859
 30
-220.0
 70
    64
  0
VERTEX
  8
I-SINK
  5
75B
 10
612.167784
 20
510.952998
 30
-450.788688
 70
    64
  0
VERTEX
  8
I-SINK
  5
75C
 10
609.890761
 20
514.896918
 30
-335.394344
 70
    64
  0
VERTEX
  8
I-SINK
  5
75D
 10
607.613738
 20
518.840838
 30
-220.0
 70
    64
  0
VERTEX
  8
I-SINK
  5
75E
 10
603.698793
 20
504.454513
 30
-450.788688
 70
    64
  0
VERTEX
  8
I-SINK
  5
75F
 10
600.478596
 20
507.67471
 30
-335.394344
 70
    64
  0
VERTEX
  8
I-SINK
  5
760
 10
597.258399
 20
510.894907
 30
-220.0
 70
    64
  0
VERTEX
  8
I-SINK
  5
761
 10
597.200308
 20
495.985521
 30
-450.788688
 70
    64
  0
VERTEX
  8
I-SINK
  5
762
 10
593.256388
 20
498.262545
 30
-335.394344
 70
    64
  0
VERTEX
  8
I-SINK
  5
763
 10
589.312468
 20
500.539568
 30
-220.0
 70
    64
  0
VERTEX
  8
I-SINK
  5
764
 10
593.115189
 20
486.123172
 30
-450.788688
 70
    64
  0
VERTEX
  8
I-SINK
  5
765
 10
588.716318
 20
487.301846
 30
-335.394344
 70
    64
  0
VERTEX
  8
I-SINK
  5
766
 10
584.317447
 20
488.48052
 30
-220.0
 70
    64
  0
VERTEX
  8
I-SINK
  5
767
 10
591.721831
 20
475.539568
 30
-450.788688
 70
    64
  0
VERTEX
  8
I-SINK
  5
768
 10
587.167784
 20
475.539568
 30
-335.394344
 70
    64
  0
VERTEX
  8
I-SINK
  5
769
 10
582.613738
 20
475.539568
 30
-220.0
 70
    64
  0
VERTEX
  8
I-SINK
  5
76A
 10
593.115189
 20
464.955964
 30
-450.788688
 70
    64
  0
VERTEX
  8
I-SINK
  5
76B
 10
588.716318
 20
463.77729
 30
-335.394344
 70
    64
  0
VERTEX
  8
I-SINK
  5
76C
 10
584.317447
 20
462.598616
 30
-220.0
 70
    64
  0
VERTEX
  8
I-SINK
  5
76D
 10
597.200308
 20
455.093615
 30
-450.788688
 70
    64
  0
VERTEX
  8
I-SINK
  5
76E
 10
593.256388
 20
452.816591
 30
-335.394344
 70
    64
  0
VERTEX
  8
I-SINK
  5
76F
 10
589.312468
 20
450.539568
 30
-220.0
 70
    64
  0
VERTEX
  8
I-SINK
  5
770
 10
603.698793
 20
446.624624
 30
-450.788688
 70
    64
  0
VERTEX
  8
I-SINK
  5
771
 10
600.478596
 20
443.404426
 30
-335.394344
 70
    64
  0
VERTEX
  8
I-SINK
  5
772
 10
597.258399
 20
440.184229
 30
-220.0
 70
    64
  0
VERTEX
  8
I-SINK
  5
773
 10
612.167784
 20
440.126138
 30
-450.788688
 70
    64
  0
VERTEX
  8
I-SINK
  5
774
 10
609.890761
 20
436.182218
 30
-335.394344
 70
    64
  0
VERTEX
  8
I-SINK
  5
775
 10
607.613738
 20
432.238298
 30
-220.0
 70
    64
  0
VERTEX
  8
I-SINK
  5
776
 10
622.030134
 20
436.041019
 30
-450.788688
 70
    64
  0
VERTEX
  8
I-SINK
  5
777
 10
620.85146
 20
431.642148
 30
-335.394344
 70
    64
  0
VERTEX
  8
I-SINK
  5
778
 10
619.672786
 20
427.243277
 30
-220.0
 70
    64
  0
VERTEX
  8
I-SINK
  5
779
 10
632.613738
 20
434.647661
 30
-450.788688
 70
    64
  0
VERTEX
  8
I-SINK
  5
77A
 10
632.613738
 20
430.093615
 30
-335.394344
 70
    64
  0
VERTEX
  8
I-SINK
  5
77B
 10
632.613738
 20
425.539568
 30
-220.0
 70
    64
  0
VERTEX
  8
I-SINK
  5
77C
 10
643.197342
 20
436.041019
 30
-450.788688
 70
    64
  0
VERTEX
  8
I-SINK
  5
77D
 10
644.376016
 20
431.642148
 30
-335.394344
 70
    64
  0
VERTEX
  8
I-SINK
  5
77E
 10
645.55469
 20
427.243277
 30
-220.0
 70
    64
  0
VERTEX
  8
I-SINK
  5
77F
 10
653.059691
 20
440.126138
 30
-450.788688
 70
    64
  0
VERTEX
  8
I-SINK
  5
780
 10
655.336715
 20
436.182218
 30
-335.394344
 70
    64
  0
VERTEX
  8
I-SINK
  5
781
 10
657.613738
 20
432.238298
 30
-220.0
 70
    64
  0
VERTEX
  8
I-SINK
  5
782
 10
661.528682
 20
446.624624
 30
-450.788688
 70
    64
  0
VERTEX
  8
I-SINK
  5
783
 10
664.74888
 20
443.404426
 30
-335.394344
 70
    64
  0
VERTEX
  8
I-SINK
  5
784
 10
667.969077
 20
440.184229
 30
-220.0
 70
    64
  0
VERTEX
  8
I-SINK
  5
785
 10
668.027168
 20
455.093615
 30
-450.788688
 70
    64
  0
VERTEX
  8
I-SINK
  5
786
 10
671.971088
 20
452.816591
 30
-335.394344
 70
    64
  0
VERTEX
  8
I-SINK
  5
787
 10
675.915008
 20
450.539568
 30
-220.0
 70
    64
  0
VERTEX
  8
I-SINK
  5
788
 10
672.112287
 20
464.955964
 30
-450.788688
 70
    64
  0
VERTEX
  8
I-SINK
  5
789
 10
676.511158
 20
463.77729
 30
-335.394344
 70
    64
  0
VERTEX
  8
I-SINK
  5
78A
 10
680.910029
 20
462.598616
 30
-220.0
 70
    64
  0
SEQEND
  8
I-SINK
  5
78B
  0
POLYLINE
  8
I-SINK
  5
78C
 66
     1
 10
0.0
 20
0.0
 30
0.0
 70
    17
 71
    22
 72
     3
  0
VERTEX
  8
I-SINK
  5
78D
 10
632.613738
 20
665.539568
 30
-326.440313
 70
    64
  0
VERTEX
  8
I-SINK
  5
78E
 10
632.613738
 20
585.539568
 30
-326.440313
 70
    64
  0
VERTEX
  8
I-SINK
  5
78F
 10
632.613738
 20
505.539568
 30
-326.440313
 70
    64
  0
VERTEX
  8
I-SINK
  5
790
 10
622.753098
 20
665.539568
 30
-327.858059
 70
    64
  0
VERTEX
  8
I-SINK
  5
791
 10
622.753098
 20
585.539568
 30
-327.858059
 70
    64
  0
VERTEX
  8
I-SINK
  5
792
 10
622.753098
 20
505.539568
 30
-327.858059
 70
    64
  0
VERTEX
  8
I-SINK
  5
793
 10
613.691309
 20
665.539568
 30
-331.996439
 70
    64
  0
VERTEX
  8
I-SINK
  5
794
 10
613.691309
 20
585.539568
 30
-331.996439
 70
    64
  0
VERTEX
  8
I-SINK
  5
795
 10
613.691309
 20
505.539568
 30
-331.996439
 70
    64
  0
VERTEX
  8
I-SINK
  5
796
 10
606.162503
 20
665.539568
 30
-338.520187
 70
    64
  0
VERTEX
  8
I-SINK
  5
797
 10
606.162503
 20
585.539568
 30
-338.520187
 70
    64
  0
VERTEX
  8
I-SINK
  5
798
 10
606.162503
 20
505.539568
 30
-338.520187
 70
    64
  0
VERTEX
  8
I-SINK
  5
799
 10
600.776618
 20
665.539568
 30
-346.900787
 70
    64
  0
VERTEX
  8
I-SINK
  5
79A
 10
600.776618
 20
585.539568
 30
-346.900787
 70
    64
  0
VERTEX
  8
I-SINK
  5
79B
 10
600.776618
 20
505.539568
 30
-346.900787
 70
    64
  0
VERTEX
  8
I-SINK
  5
79C
 10
597.969987
 20
665.539568
 30
-356.459293
 70
    64
  0
VERTEX
  8
I-SINK
  5
79D
 10
597.969987
 20
585.539568
 30
-356.459293
 70
    64
  0
VERTEX
  8
I-SINK
  5
79E
 10
597.969987
 20
505.539568
 30
-356.459293
 70
    64
  0
VERTEX
  8
I-SINK
  5
79F
 10
597.969987
 20
665.539568
 30
-366.421332
 70
    64
  0
VERTEX
  8
I-SINK
  5
7A0
 10
597.969987
 20
585.539568
 30
-366.421332
 70
    64
  0
VERTEX
  8
I-SINK
  5
7A1
 10
597.969987
 20
505.539568
 30
-366.421332
 70
    64
  0
VERTEX
  8
I-SINK
  5
7A2
 10
600.776618
 20
665.539568
 30
-375.979838
 70
    64
  0
VERTEX
  8
I-SINK
  5
7A3
 10
600.776618
 20
585.539568
 30
-375.979838
 70
    64
  0
VERTEX
  8
I-SINK
  5
7A4
 10
600.776618
 20
505.539568
 30
-375.979838
 70
    64
  0
VERTEX
  8
I-SINK
  5
7A5
 10
606.162503
 20
665.539568
 30
-384.360438
 70
    64
  0
VERTEX
  8
I-SINK
  5
7A6
 10
606.162503
 20
585.539568
 30
-384.360438
 70
    64
  0
VERTEX
  8
I-SINK
  5
7A7
 10
606.162503
 20
505.539568
 30
-384.360438
 70
    64
  0
VERTEX
  8
I-SINK
  5
7A8
 10
613.691309
 20
665.539568
 30
-390.884186
 70
    64
  0
VERTEX
  8
I-SINK
  5
7A9
 10
613.691309
 20
585.539568
 30
-390.884186
 70
    64
  0
VERTEX
  8
I-SINK
  5
7AA
 10
613.691309
 20
505.539568
 30
-390.884186
 70
    64
  0
VERTEX
  8
I-SINK
  5
7AB
 10
622.753098
 20
665.539568
 30
-395.022567
 70
    64
  0
VERTEX
  8
I-SINK
  5
7AC
 10
622.753098
 20
585.539568
 30
-395.022567
 70
    64
  0
VERTEX
  8
I-SINK
  5
7AD
 10
622.753098
 20
505.539568
 30
-395.022567
 70
    64
  0
VERTEX
  8
I-SINK
  5
7AE
 10
632.613738
 20
665.539568
 30
-396.440313
 70
    64
  0
VERTEX
  8
I-SINK
  5
7AF
 10
632.613738
 20
585.539568
 30
-396.440313
 70
    64
  0
VERTEX
  8
I-SINK
  5
7B0
 10
632.613738
 20
505.539568
 30
-396.440313
 70
    64
  0
VERTEX
  8
I-SINK
  5
7B1
 10
642.474377
 20
665.539568
 30
-395.022567
 70
    64
  0
VERTEX
  8
I-SINK
  5
7B2
 10
642.474377
 20
585.539568
 30
-395.022567
 70
    64
  0
VERTEX
  8
I-SINK
  5
7B3
 10
642.474377
 20
505.539568
 30
-395.022567
 70
    64
  0
VERTEX
  8
I-SINK
  5
7B4
 10
651.536166
 20
665.539568
 30
-390.884186
 70
    64
  0
VERTEX
  8
I-SINK
  5
7B5
 10
651.536166
 20
585.539568
 30
-390.884186
 70
    64
  0
VERTEX
  8
I-SINK
  5
7B6
 10
651.536166
 20
505.539568
 30
-390.884186
 70
    64
  0
VERTEX
  8
I-SINK
  5
7B7
 10
659.064973
 20
665.539568
 30
-384.360438
 70
    64
  0
VERTEX
  8
I-SINK
  5
7B8
 10
659.064973
 20
585.539568
 30
-384.360438
 70
    64
  0
VERTEX
  8
I-SINK
  5
7B9
 10
659.064973
 20
505.539568
 30
-384.360438
 70
    64
  0
VERTEX
  8
I-SINK
  5
7BA
 10
664.450858
 20
665.539568
 30
-375.979838
 70
    64
  0
VERTEX
  8
I-SINK
  5
7BB
 10
664.450858
 20
585.539568
 30
-375.979838
 70
    64
  0
VERTEX
  8
I-SINK
  5
7BC
 10
664.450858
 20
505.539568
 30
-375.979838
 70
    64
  0
VERTEX
  8
I-SINK
  5
7BD
 10
667.257488
 20
665.539568
 30
-366.421332
 70
    64
  0
VERTEX
  8
I-SINK
  5
7BE
 10
667.257488
 20
585.539568
 30
-366.421332
 70
    64
  0
VERTEX
  8
I-SINK
  5
7BF
 10
667.257488
 20
505.539568
 30
-366.421332
 70
    64
  0
VERTEX
  8
I-SINK
  5
7C0
 10
667.257488
 20
665.539568
 30
-356.459293
 70
    64
  0
VERTEX
  8
I-SINK
  5
7C1
 10
667.257488
 20
585.539568
 30
-356.459293
 70
    64
  0
VERTEX
  8
I-SINK
  5
7C2
 10
667.257488
 20
505.539568
 30
-356.459293
 70
    64
  0
VERTEX
  8
I-SINK
  5
7C3
 10
664.450858
 20
665.539568
 30
-346.900787
 70
    64
  0
VERTEX
  8
I-SINK
  5
7C4
 10
664.450858
 20
585.539568
 30
-346.900787
 70
    64
  0
VERTEX
  8
I-SINK
  5
7C5
 10
664.450858
 20
505.539568
 30
-346.900787
 70
    64
  0
VERTEX
  8
I-SINK
  5
7C6
 10
659.064973
 20
665.539568
 30
-338.520187
 70
    64
  0
VERTEX
  8
I-SINK
  5
7C7
 10
659.064973
 20
585.539568
 30
-338.520187
 70
    64
  0
VERTEX
  8
I-SINK
  5
7C8
 10
659.064973
 20
505.539568
 30
-338.520187
 70
    64
  0
VERTEX
  8
I-SINK
  5
7C9
 10
651.536166
 20
665.539568
 30
-331.996439
 70
    64
  0
VERTEX
  8
I-SINK
  5
7CA
 10
651.536166
 20
585.539568
 30
-331.996439
 70
    64
  0
VERTEX
  8
I-SINK
  5
7CB
 10
651.536166
 20
505.539568
 30
-331.996439
 70
    64
  0
VERTEX
  8
I-SINK
  5
7CC
 10
642.474377
 20
665.539568
 30
-327.858059
 70
    64
  0
VERTEX
  8
I-SINK
  5
7CD
 10
642.474377
 20
585.539568
 30
-327.858059
 70
    64
  0
VERTEX
  8
I-SINK
  5
7CE
 10
642.474377
 20
505.539568
 30
-327.858059
 70
    64
  0
SEQEND
  8
I-SINK
  5
7CF
  0
POLYLINE
  8
I-STEEL
  5
7D7
 66
     1
 10
0.0
 20
0.0
 30
0.0
 70
    16
 71
     2
 72
    11
  0
VERTEX
  8
I-STEEL
  5
7D8
 10
612.613738
 20
614.157294
 30
-27.754224
 70
    64
  0
VERTEX
  8
I-STEEL
  5
7D9
 10
613.592607
 20
614.157294
 30
-21.573884
 70
    64
  0
VERTEX
  8
I-STEEL
  5
7DA
 10
616.433398
 20
614.157294
 30
-15.998519
 70
    64
  0
VERTEX
  8
I-STEEL
  5
7DB
 10
620.858033
 20
614.157294
 30
-11.573884
 70
    64
  0
VERTEX
  8
I-STEEL
  5
7DC
 10
626.433398
 20
614.157294
 30
-8.733093
 70
    64
  0
VERTEX
  8
I-STEEL
  5
7DD
 10
632.613738
 20
614.157294
 30
-7.754224
 70
    64
  0
VERTEX
  8
I-STEEL
  5
7DE
 10
638.794078
 20
614.157294
 30
-8.733093
 70
    64
  0
VERTEX
  8
I-STEEL
  5
7DF
 10
644.369443
 20
614.157294
 30
-11.573884
 70
    64
  0
VERTEX
  8
I-STEEL
  5
7E0
 10
648.794078
 20
614.157294
 30
-15.998519
 70
    64
  0
VERTEX
  8
I-STEEL
  5
7E1
 10
651.634868
 20
614.157294
 30
-21.573884
 70
    64
  0
VERTEX
  8
I-STEEL
  5
7E2
 10
652.613738
 20
614.157294
 30
-27.754224
 70
    64
  0
VERTEX
  8
I-STEEL
  5
7E3
 10
612.613738
 20
624.157294
 30
-27.754224
 70
    64
  0
VERTEX
  8
I-STEEL
  5
7E4
 10
613.592607
 20
624.157294
 30
-21.573884
 70
    64
  0
VERTEX
  8
I-STEEL
  5
7E5
 10
616.433398
 20
624.157294
 30
-15.998519
 70
    64
  0
VERTEX
  8
I-STEEL
  5
7E6
 10
620.858033
 20
624.157294
 30
-11.573884
 70
    64
  0
VERTEX
  8
I-STEEL
  5
7E7
 10
626.433398
 20
624.157294
 30
-8.733093
 70
    64
  0
VERTEX
  8
I-STEEL
  5
7E8
 10
632.613738
 20
624.157294
 30
-7.754224
 70
    64
  0
VERTEX
  8
I-STEEL
  5
7E9
 10
638.794078
 20
624.157294
 30
-8.733093
 70
    64
  0
VERTEX
  8
I-STEEL
  5
7EA
 10
644.369443
 20
624.157294
 30
-11.573884
 70
    64
  0
VERTEX
  8
I-STEEL
  5
7EB
 10
648.794078
 20
624.157294
 30
-15.998519
 70
    64
  0
VERTEX
  8
I-STEEL
  5
7EC
 10
651.634868
 20
624.157294
 30
-21.573884
 70
    64
  0
VERTEX
  8
I-STEEL
  5
7ED
 10
652.613738
 20
624.157294
 30
-27.754224
 70
    64
  0
SEQEND
  8
I-STEEL
  5
7EE
  0
POLYLINE
  8
I-STEEL
  5
7EF
 66
     1
 10
0.0
 20
0.0
 30
0.0
 70
    16
 71
     2
 72
    11
  0
VERTEX
  8
I-STEEL
  5
7F0
 10
612.613738
 20
614.157294
 30
-27.754224
 70
    64
  0
VERTEX
  8
I-STEEL
  5
7F1
 10
613.592607
 20
614.157294
 30
-33.934564
 70
    64
  0
VERTEX
  8
I-STEEL
  5
7F2
 10
616.433398
 20
614.157294
 30
-39.509929
 70
    64
  0
VERTEX
  8
I-STEEL
  5
7F3
 10
620.858033
 20
614.157294
 30
-43.934564
 70
    64
  0
VERTEX
  8
I-STEEL
  5
7F4
 10
626.433398
 20
614.157294
 30
-46.775354
 70
    64
  0
VERTEX
  8
I-STEEL
  5
7F5
 10
632.613738
 20
614.157294
 30
-47.754224
 70
    64
  0
VERTEX
  8
I-STEEL
  5
7F6
 10
638.794078
 20
614.157294
 30
-46.775354
 70
    64
  0
VERTEX
  8
I-STEEL
  5
7F7
 10
644.369443
 20
614.157294
 30
-43.934564
 70
    64
  0
VERTEX
  8
I-STEEL
  5
7F8
 10
648.794078
 20
614.157294
 30
-39.509929
 70
    64
  0
VERTEX
  8
I-STEEL
  5
7F9
 10
651.634868
 20
614.157294
 30
-33.934564
 70
    64
  0
VERTEX
  8
I-STEEL
  5
7FA
 10
652.613738
 20
614.157294
 30
-27.754224
 70
    64
  0
VERTEX
  8
I-STEEL
  5
7FB
 10
612.613738
 20
624.157294
 30
-27.754224
 70
    64
  0
VERTEX
  8
I-STEEL
  5
7FC
 10
613.592607
 20
624.157294
 30
-33.934564
 70
    64
  0
VERTEX
  8
I-STEEL
  5
7FD
 10
616.433398
 20
624.157294
 30
-39.509929
 70
    64
  0
VERTEX
  8
I-STEEL
  5
7FE
 10
620.858033
 20
624.157294
 30
-43.934564
 70
    64
  0
VERTEX
  8
I-STEEL
  5
7FF
 10
626.433398
 20
624.157294
 30
-46.775354
 70
    64
  0
VERTEX
  8
I-STEEL
  5
800
 10
632.613738
 20
624.157294
 30
-47.754224
 70
    64
  0
VERTEX
  8
I-STEEL
  5
801
 10
638.794078
 20
624.157294
 30
-46.775354
 70
    64
  0
VERTEX
  8
I-STEEL
  5
802
 10
644.369443
 20
624.157294
 30
-43.934564
 70
    64
  0
VERTEX
  8
I-STEEL
  5
803
 10
648.794078
 20
624.157294
 30
-39.509929
 70
    64
  0
VERTEX
  8
I-STEEL
  5
804
 10
651.634868
 20
624.157294
 30
-33.934564
 70
    64
  0
VERTEX
  8
I-STEEL
  5
805
 10
652.613738
 20
624.157294
 30
-27.754224
 70
    64
  0
SEQEND
  8
I-STEEL
  5
806
  0
POLYLINE
  8
I-STEEL
  5
807
 66
     1
 10
0.0
 20
0.0
 30
0.0
 70
    16
 71
     2
 72
    11
  0
VERTEX
  8
I-STEEL
  5
808
 10
612.613738
 20
614.157294
 30
-27.754224
 70
    64
  0
VERTEX
  8
I-STEEL
  5
809
 10
613.592607
 20
614.157294
 30
-21.573884
 70
    64
  0
VERTEX
  8
I-STEEL
  5
80A
 10
616.433398
 20
614.157294
 30
-15.998519
 70
    64
  0
VERTEX
  8
I-STEEL
  5
80B
 10
620.858033
 20
614.157294
 30
-11.573884
 70
    64
  0
VERTEX
  8
I-STEEL
  5
80C
 10
626.433398
 20
614.157294
 30
-8.733093
 70
    64
  0
VERTEX
  8
I-STEEL
  5
80D
 10
632.613738
 20
614.157294
 30
-7.754224
 70
    64
  0
VERTEX
  8
I-STEEL
  5
80E
 10
638.794078
 20
614.157294
 30
-8.733093
 70
    64
  0
VERTEX
  8
I-STEEL
  5
80F
 10
644.369443
 20
614.157294
 30
-11.573884
 70
    64
  0
VERTEX
  8
I-STEEL
  5
810
 10
648.794078
 20
614.157294
 30
-15.998519
 70
    64
  0
VERTEX
  8
I-STEEL
  5
811
 10
651.634868
 20
614.157294
 30
-21.573884
 70
    64
  0
VERTEX
  8
I-STEEL
  5
812
 10
652.613738
 20
614.157294
 30
-27.754224
 70
    64
  0
VERTEX
  8
I-STEEL
  5
813
 10
612.613738
 20
614.157294
 30
-27.754224
 70
    64
  0
VERTEX
  8
I-STEEL
  5
814
 10
613.592607
 20
614.157294
 30
-33.934564
 70
    64
  0
VERTEX
  8
I-STEEL
  5
815
 10
616.433398
 20
614.157294
 30
-39.509929
 70
    64
  0
VERTEX
  8
I-STEEL
  5
816
 10
620.858033
 20
614.157294
 30
-43.934564
 70
    64
  0
VERTEX
  8
I-STEEL
  5
817
 10
626.433398
 20
614.157294
 30
-46.775354
 70
    64
  0
VERTEX
  8
I-STEEL
  5
818
 10
632.613738
 20
614.157294
 30
-47.754224
 70
    64
  0
VERTEX
  8
I-STEEL
  5
819
 10
638.794078
 20
614.157294
 30
-46.775354
 70
    64
  0
VERTEX
  8
I-STEEL
  5
81A
 10
644.369443
 20
614.157294
 30
-43.934564
 70
    64
  0
VERTEX
  8
I-STEEL
  5
81B
 10
648.794078
 20
614.157294
 30
-39.509929
 70
    64
  0
VERTEX
  8
I-STEEL
  5
81C
 10
651.634868
 20
614.157294
 30
-33.934564
 70
    64
  0
VERTEX
  8
I-STEEL
  5
81D
 10
652.613738
 20
614.157294
 30
-27.754224
 70
    64
  0
SEQEND
  8
I-STEEL
  5
81E
  0
POLYLINE
  8
I-STEEL
  5
8B1
 66
     1
 10
0.0
 20
0.0
 30
0.0
 70
    16
 71
    11
 72
    11
  0
VERTEX
  8
I-STEEL
  5
8B2
 10
632.613738
 20
610.539568
 30
43.559687
 70
    64
  0
VERTEX
  8
I-STEEL
  5
8B3
 10
637.248993
 20
609.805416
 30
43.559687
 70
    64
  0
VERTEX
  8
I-STEEL
  5
8B4
 10
641.430517
 20
607.674823
 30
43.559687
 70
    64
  0
VERTEX
  8
I-STEEL
  5
8B5
 10
644.748993
 20
604.356347
 30
43.559687
 70
    64
  0
VERTEX
  8
I-STEEL
  5
8B6
 10
646.879586
 20
600.174823
 30
43.559687
 70
    64
  0
VERTEX
  8
I-STEEL
  5
8B7
 10
647.613738
 20
595.539568
 30
43.559687
 70
    64
  0
VERTEX
  8
I-STEEL
  5
8B8
 10
646.879586
 20
590.904313
 30
43.559687
 70
    64
  0
VERTEX
  8
I-STEEL
  5
8B9
 10
644.748993
 20
586.722789
 30
43.559687
 70
    64
  0
VERTEX
  8
I-STEEL
  5
8BA
 10
641.430517
 20
583.404313
 30
43.559687
 70
    64
  0
VERTEX
  8
I-STEEL
  5
8BB
 10
637.248993
 20
581.27372
 30
43.559687
 70
    64
  0
VERTEX
  8
I-STEEL
  5
8BC
 10
632.613738
 20
580.539568
 30
43.559687
 70
    64
  0
VERTEX
  8
I-STEEL
  5
8BD
 10
632.613738
 20
610.970476
 30
49.034894
 70
    64
  0
VERTEX
  8
I-STEEL
  5
8BE
 10
637.248993
 20
610.245363
 30
49.14974
 70
    64
  0
VERTEX
  8
I-STEEL
  5
8BF
 10
641.430517
 20
608.141001
 30
49.483038
 70
    64
  0
VERTEX
  8
I-STEEL
  5
8C0
 10
644.748993
 20
604.863381
 30
50.002162
 70
    64
  0
VERTEX
  8
I-STEEL
  5
8C1
 10
646.879586
 20
600.733338
 30
50.656297
 70
    64
  0
VERTEX
  8
I-STEEL
  5
8C2
 10
647.613738
 20
596.155151
 30
51.381411
 70
    64
  0
VERTEX
  8
I-STEEL
  5
8C3
 10
646.879586
 20
591.576964
 30
52.106524
 70
    64
  0
VERTEX
  8
I-STEEL
  5
8C4
 10
644.748993
 20
587.446921
 30
52.760659
 70
    64
  0
VERTEX
  8
I-STEEL
  5
8C5
 10
641.430517
 20
584.169301
 30
53.279783
 70
    64
  0
VERTEX
  8
I-STEEL
  5
8C6
 10
637.248993
 20
582.06494
 30
53.613081
 70
    64
  0
VERTEX
  8
I-STEEL
  5
8C7
 10
632.613738
 20
581.339826
 30
53.727928
 70
    64
  0
VERTEX
  8
I-STEEL
  5
8C8
 10
632.613738
 20
612.25259
 30
54.375282
 70
    64
  0
VERTEX
  8
I-STEEL
  5
8C9
 10
637.248993
 20
611.55437
 30
54.602148
 70
    64
  0
VERTEX
  8
I-STEEL
  5
8CA
 10
641.430517
 20
609.528056
 30
55.260537
 70
    64
  0
VERTEX
  8
I-STEEL
  5
8CB
 10
644.748993
 20
606.371997
 30
56.286003
 70
    64
  0
VERTEX
  8
I-STEEL
  5
8CC
 10
646.879586
 20
602.395132
 30
57.578164
 70
    64
  0
VERTEX
  8
I-STEEL
  5
8CD
 10
647.613738
 20
597.986742
 30
59.010537
 70
    64
  0
VERTEX
  8
I-STEEL
  5
8CE
 10
646.879586
 20
593.578353
 30
60.44291
 70
    64
  0
VERTEX
  8
I-STEEL
  5
8CF
 10
644.748993
 20
589.601487
 30
61.735071
 70
    64
  0
VERTEX
  8
I-STEEL
  5
8D0
 10
641.430517
 20
586.445429
 30
62.760537
 70
    64
  0
VERTEX
  8
I-STEEL
  5
8D1
 10
637.248993
 20
584.419115
 30
63.418926
 70
    64
  0
VERTEX
  8
I-STEEL
  5
8D2
 10
632.613738
 20
583.720895
 30
63.645792
 70
    64
  0
VERTEX
  8
I-STEEL
  5
8D3
 10
632.613738
 20
614.35434
 30
59.449355
 70
    64
  0
VERTEX
  8
I-STEEL
  5
8D4
 10
637.248993
 20
613.700205
 30
59.782653
 70
    64
  0
VERTEX
  8
I-STEEL
  5
8D5
 10
641.430517
 20
611.801833
 30
60.749922
 70
    64
  0
VERTEX
  8
I-STEEL
  5
8D6
 10
644.748993
 20
608.845049
 30
62.256478
 70
    64
  0
VERTEX
  8
I-STEEL
  5
8D7
 10
646.879586
 20
605.119284
 30
64.154851
 70
    64
  0
VERTEX
  8
I-STEEL
  5
8D8
 10
647.613738
 20
600.989242
 30
66.259212
 70
    64
  0
VERTEX
  8
I-STEEL
  5
8D9
 10
646.879586
 20
596.8592
 30
68.363574
 70
    64
  0
VERTEX
  8
I-STEEL
  5
8DA
 10
644.748993
 20
593.133434
 30
70.261946
 70
    64
  0
VERTEX
  8
I-STEEL
  5
8DB
 10
641.430517
 20
590.176651
 30
71.768503
 70
    64
  0
VERTEX
  8
I-STEEL
  5
8DC
 10
637.248993
 20
588.278278
 30
72.735772
 70
    64
  0
VERTEX
  8
I-STEEL
  5
8DD
 10
632.613738
 20
587.624144
 30
73.06907
 70
    64
  0
VERTEX
  8
I-STEEL
  5
8DE
 10
632.613738
 20
617.223973
 30
64.132171
 70
    64
  0
VERTEX
  8
I-STEEL
  5
8DF
 10
637.248993
 20
616.630032
 30
64.563695
 70
    64
  0
VERTEX
  8
I-STEEL
  5
8E0
 10
641.430517
 20
614.906346
 30
65.816026
 70
    64
  0
VERTEX
  8
I-STEEL
  5
8E1
 10
644.748993
 20
612.221642
 30
67.766577
 70
    64
  0
VERTEX
  8
I-STEEL
  5
8E2
 10
646.879586
 20
608.838718
 30
70.224415
 70
    64
  0
VERTEX
  8
I-STEEL
  5
8E3
 10
647.613738
 20
605.088718
 30
72.94895
 70
    64
  0
VERTEX
  8
I-STEEL
  5
8E4
 10
646.879586
 20
601.338718
 30
75.673484
 70
    64
  0
VERTEX
  8
I-STEEL
  5
8E5
 10
644.748993
 20
597.955794
 30
78.131322
 70
    64
  0
VERTEX
  8
I-STEEL
  5
8E6
 10
641.430517
 20
595.271091
 30
80.081874
 70
    64
  0
VERTEX
  8
I-STEEL
  5
8E7
 10
637.248993
 20
593.547405
 30
81.334205
 70
    64
  0
VERTEX
  8
I-STEEL
  5
8E8
 10
632.613738
 20
592.953463
 30
81.765729
 70
    64
  0
VERTEX
  8
I-STEEL
  5
8E9
 10
632.613738
 20
620.790831
 30
68.308425
 70
    64
  0
VERTEX
  8
I-STEEL
  5
8EA
 10
637.248993
 20
620.271707
 30
68.827549
 70
    64
  0
VERTEX
  8
I-STEEL
  5
8EB
 10
641.430517
 20
618.76515
 30
70.334105
 70
    64
  0
VERTEX
  8
I-STEEL
  5
8EC
 10
644.748993
 20
616.418633
 30
72.680622
 70
    64
  0
VERTEX
  8
I-STEEL
  5
8ED
 10
646.879586
 20
613.461849
 30
75.637406
 70
    64
  0
VERTEX
  8
I-STEEL
  5
8EE
 10
647.613738
 20
610.184229
 30
78.915026
 70
    64
  0
VERTEX
  8
I-STEEL
  5
8EF
 10
646.879586
 20
606.906609
 30
82.192647
 70
    64
  0
VERTEX
  8
I-STEEL
  5
8F0
 10
644.748993
 20
603.949825
 30
85.14943
 70
    64
  0
VERTEX
  8
I-STEEL
  5
8F1
 10
641.430517
 20
601.603308
 30
87.495947
 70
    64
  0
VERTEX
  8
I-STEEL
  5
8F2
 10
637.248993
 20
600.096751
 30
89.002504
 70
    64
  0
VERTEX
  8
I-STEEL
  5
8F3
 10
632.613738
 20
599.577627
 30
89.521628
 70
    64
  0
VERTEX
  8
I-STEEL
  5
8F4
 10
632.613738
 20
624.967084
 30
71.875282
 70
    64
  0
VERTEX
  8
I-STEEL
  5
8F5
 10
637.248993
 20
624.53556
 30
72.469224
 70
    64
  0
VERTEX
  8
I-STEEL
  5
8F6
 10
641.430517
 20
623.283229
 30
74.19291
 70
    64
  0
VERTEX
  8
I-STEEL
  5
8F7
 10
644.748993
 20
621.332678
 30
76.877613
 70
    64
  0
VERTEX
  8
I-STEEL
  5
8F8
 10
646.879586
 20
618.87484
 30
80.260537
 70
    64
  0
VERTEX
  8
I-STEEL
  5
8F9
 10
647.613738
 20
616.150305
 30
84.010537
 70
    64
  0
VERTEX
  8
I-STEEL
  5
8FA
 10
646.879586
 20
613.425771
 30
87.760537
 70
    64
  0
VERTEX
  8
I-STEEL
  5
8FB
 10
644.748993
 20
610.967933
 30
91.143461
 70
    64
  0
VERTEX
  8
I-STEEL
  5
8FC
 10
641.430517
 20
609.017382
 30
93.828164
 70
    64
  0
VERTEX
  8
I-STEEL
  5
8FD
 10
637.248993
 20
607.765051
 30
95.55185
 70
    64
  0
VERTEX
  8
I-STEEL
  5
8FE
 10
632.613738
 20
607.333527
 30
96.145792
 70
    64
  0
VERTEX
  8
I-STEEL
  5
8FF
 10
632.613738
 20
629.649901
 30
74.744916
 70
    64
  0
VERTEX
  8
I-STEEL
  5
900
 10
637.248993
 20
629.316602
 30
75.39905
 70
    64
  0
VERTEX
  8
I-STEEL
  5
901
 10
641.430517
 20
628.349334
 30
77.297422
 70
    64
  0
VERTEX
  8
I-STEEL
  5
902
 10
644.748993
 20
626.842777
 30
80.254206
 70
    64
  0
VERTEX
  8
I-STEEL
  5
903
 10
646.879586
 20
624.944405
 30
83.979971
 70
    64
  0
VERTEX
  8
I-STEEL
  5
904
 10
647.613738
 20
622.840043
 30
88.110013
 70
    64
  0
VERTEX
  8
I-STEEL
  5
905
 10
646.879586
 20
620.735681
 30
92.240056
 70
    64
  0
VERTEX
  8
I-STEEL
  5
906
 10
644.748993
 20
618.837309
 30
95.965821
 70
    64
  0
VERTEX
  8
I-STEEL
  5
907
 10
641.430517
 20
617.330753
 30
98.922605
 70
    64
  0
VERTEX
  8
I-STEEL
  5
908
 10
637.248993
 20
616.363484
 30
100.820977
 70
    64
  0
VERTEX
  8
I-STEEL
  5
909
 10
632.613738
 20
616.030186
 30
101.475111
 70
    64
  0
VERTEX
  8
I-STEEL
  5
90A
 10
632.613738
 20
634.723973
 30
76.846665
 70
    64
  0
VERTEX
  8
I-STEEL
  5
90B
 10
637.248993
 20
634.497108
 30
77.544886
 70
    64
  0
VERTEX
  8
I-STEEL
  5
90C
 10
641.430517
 20
633.838718
 30
79.5712
 70
    64
  0
VERTEX
  8
I-STEEL
  5
90D
 10
644.748993
 20
632.813253
 30
82.727258
 70
    64
  0
VERTEX
  8
I-STEEL
  5
90E
 10
646.879586
 20
631.521091
 30
86.704124
 70
    64
  0
VERTEX
  8
I-STEEL
  5
90F
 10
647.613738
 20
630.088718
 30
91.112513
 70
    64
  0
VERTEX
  8
I-STEEL
  5
910
 10
646.879586
 20
628.656346
 30
95.520902
 70
    64
  0
VERTEX
  8
I-STEEL
  5
911
 10
644.748993
 20
627.364184
 30
99.497768
 70
    64
  0
VERTEX
  8
I-STEEL
  5
912
 10
641.430517
 20
626.338718
 30
102.653826
 70
    64
  0
VERTEX
  8
I-STEEL
  5
913
 10
637.248993
 20
625.680329
 30
104.680141
 70
    64
  0
VERTEX
  8
I-STEEL
  5
914
 10
632.613738
 20
625.453463
 30
105.378361
 70
    64
  0
VERTEX
  8
I-STEEL
  5
915
 10
632.613738
 20
640.064362
 30
78.128779
 70
    64
  0
VERTEX
  8
I-STEEL
  5
916
 10
637.248993
 20
639.949515
 30
78.853893
 70
    64
  0
VERTEX
  8
I-STEEL
  5
917
 10
641.430517
 20
639.616217
 30
80.958255
 70
    64
  0
VERTEX
  8
I-STEEL
  5
918
 10
644.748993
 20
639.097093
 30
84.235875
 70
    64
  0
VERTEX
  8
I-STEEL
  5
919
 10
646.879586
 20
638.442958
 30
88.365917
 70
    64
  0
VERTEX
  8
I-STEEL
  5
91A
 10
647.613738
 20
637.717845
 30
92.944104
 70
    64
  0
VERTEX
  8
I-STEEL
  5
91B
 10
646.879586
 20
636.992731
 30
97.522292
 70
    64
  0
VERTEX
  8
I-STEEL
  5
91C
 10
644.748993
 20
636.338597
 30
101.652334
 70
    64
  0
VERTEX
  8
I-STEEL
  5
91D
 10
641.430517
 20
635.819473
 30
104.929954
 70
    64
  0
VERTEX
  8
I-STEEL
  5
91E
 10
637.248993
 20
635.486175
 30
107.034316
 70
    64
  0
VERTEX
  8
I-STEEL
  5
91F
 10
632.613738
 20
635.371328
 30
107.759429
 70
    64
  0
VERTEX
  8
I-STEEL
  5
920
 10
632.613738
 20
645.539568
 30
78.559687
 70
    64
  0
VERTEX
  8
I-STEEL
  5
921
 10
637.248993
 20
645.539568
 30
79.29384
 70
    64
  0
VERTEX
  8
I-STEEL
  5
922
 10
641.430517
 20
645.539568
 30
81.424432
 70
    64
  0
VERTEX
  8
I-STEEL
  5
923
 10
644.748993
 20
645.539568
 30
84.742908
 70
    64
  0
VERTEX
  8
I-STEEL
  5
924
 10
646.879586
 20
645.539568
 30
88.924432
 70
    64
  0
VERTEX
  8
I-STEEL
  5
925
 10
647.613738
 20
645.539568
 30
93.559687
 70
    64
  0
VERTEX
  8
I-STEEL
  5
926
 10
646.879586
 20
645.539568
 30
98.194942
 70
    64
  0
VERTEX
  8
I-STEEL
  5
927
 10
644.748993
 20
645.539568
 30
102.376466
 70
    64
  0
VERTEX
  8
I-STEEL
  5
928
 10
641.430517
 20
645.539568
 30
105.694942
 70
    64
  0
VERTEX
  8
I-STEEL
  5
929
 10
637.248993
 20
645.539568
 30
107.825535
 70
    64
  0
VERTEX
  8
I-STEEL
  5
92A
 10
632.613738
 20
645.539568
 30
108.559687
 70
    64
  0
SEQEND
  8
I-STEEL
  5
92B
  0
POLYLINE
  8
I-STEEL
  5
92C
 66
     1
 10
0.0
 20
0.0
 30
0.0
 70
    17
 71
    20
 72
     3
  0
VERTEX
  8
I-STEEL
  5
92D
 10
632.613738
 20
665.539568
 30
123.559687
 70
    64
  0
VERTEX
  8
I-STEEL
  5
92E
 10
632.613738
 20
663.039568
 30
123.559687
 70
    64
  0
VERTEX
  8
I-STEEL
  5
92F
 10
632.613738
 20
660.539568
 30
123.559687
 70
    64
  0
VERTEX
  8
I-STEEL
  5
930
 10
623.343228
 20
665.539568
 30
122.091383
 70
    64
  0
VERTEX
  8
I-STEEL
  5
931
 10
623.343228
 20
663.039568
 30
122.091383
 70
    64
  0
VERTEX
  8
I-STEEL
  5
932
 10
623.343228
 20
660.539568
 30
122.091383
 70
    64
  0
VERTEX
  8
I-STEEL
  5
933
 10
614.98018
 20
665.539568
 30
117.830197
 70
    64
  0
VERTEX
  8
I-STEEL
  5
934
 10
614.98018
 20
663.039568
 30
117.830197
 70
    64
  0
VERTEX
  8
I-STEEL
  5
935
 10
614.98018
 20
660.539568
 30
117.830197
 70
    64
  0
VERTEX
  8
I-STEEL
  5
936
 10
608.343228
 20
665.539568
 30
111.193245
 70
    64
  0
VERTEX
  8
I-STEEL
  5
937
 10
608.343228
 20
663.039568
 30
111.193245
 70
    64
  0
VERTEX
  8
I-STEEL
  5
938
 10
608.343228
 20
660.539568
 30
111.193245
 70
    64
  0
VERTEX
  8
I-STEEL
  5
939
 10
604.082042
 20
665.539568
 30
102.830197
 70
    64
  0
VERTEX
  8
I-STEEL
  5
93A
 10
604.082042
 20
663.039568
 30
102.830197
 70
    64
  0
VERTEX
  8
I-STEEL
  5
93B
 10
604.082042
 20
660.539568
 30
102.830197
 70
    64
  0
VERTEX
  8
I-STEEL
  5
93C
 10
602.613738
 20
665.539568
 30
93.559687
 70
    64
  0
VERTEX
  8
I-STEEL
  5
93D
 10
602.613738
 20
663.039568
 30
93.559687
 70
    64
  0
VERTEX
  8
I-STEEL
  5
93E
 10
602.613738
 20
660.539568
 30
93.559687
 70
    64
  0
VERTEX
  8
I-STEEL
  5
93F
 10
604.082042
 20
665.539568
 30
84.289177
 70
    64
  0
VERTEX
  8
I-STEEL
  5
940
 10
604.082042
 20
663.039568
 30
84.289177
 70
    64
  0
VERTEX
  8
I-STEEL
  5
941
 10
604.082042
 20
660.539568
 30
84.289177
 70
    64
  0
VERTEX
  8
I-STEEL
  5
942
 10
608.343228
 20
665.539568
 30
75.92613
 70
    64
  0
VERTEX
  8
I-STEEL
  5
943
 10
608.343228
 20
663.039568
 30
75.92613
 70
    64
  0
VERTEX
  8
I-STEEL
  5
944
 10
608.343228
 20
660.539568
 30
75.92613
 70
    64
  0
VERTEX
  8
I-STEEL
  5
945
 10
614.98018
 20
665.539568
 30
69.289177
 70
    64
  0
VERTEX
  8
I-STEEL
  5
946
 10
614.98018
 20
663.039568
 30
69.289177
 70
    64
  0
VERTEX
  8
I-STEEL
  5
947
 10
614.98018
 20
660.539568
 30
69.289177
 70
    64
  0
VERTEX
  8
I-STEEL
  5
948
 10
623.343228
 20
665.539568
 30
65.027992
 70
    64
  0
VERTEX
  8
I-STEEL
  5
949
 10
623.343228
 20
663.039568
 30
65.027992
 70
    64
  0
VERTEX
  8
I-STEEL
  5
94A
 10
623.343228
 20
660.539568
 30
65.027992
 70
    64
  0
VERTEX
  8
I-STEEL
  5
94B
 10
632.613738
 20
665.539568
 30
63.559687
 70
    64
  0
VERTEX
  8
I-STEEL
  5
94C
 10
632.613738
 20
663.039568
 30
63.559687
 70
    64
  0
VERTEX
  8
I-STEEL
  5
94D
 10
632.613738
 20
660.539568
 30
63.559687
 70
    64
  0
VERTEX
  8
I-STEEL
  5
94E
 10
641.884248
 20
665.539568
 30
65.027992
 70
    64
  0
VERTEX
  8
I-STEEL
  5
94F
 10
641.884248
 20
663.039568
 30
65.027992
 70
    64
  0
VERTEX
  8
I-STEEL
  5
950
 10
641.884248
 20
660.539568
 30
65.027992
 70
    64
  0
VERTEX
  8
I-STEEL
  5
951
 10
650.247295
 20
665.539568
 30
69.289177
 70
    64
  0
VERTEX
  8
I-STEEL
  5
952
 10
650.247295
 20
663.039568
 30
69.289177
 70
    64
  0
VERTEX
  8
I-STEEL
  5
953
 10
650.247295
 20
660.539568
 30
69.289177
 70
    64
  0
VERTEX
  8
I-STEEL
  5
954
 10
656.884248
 20
665.539568
 30
75.92613
 70
    64
  0
VERTEX
  8
I-STEEL
  5
955
 10
656.884248
 20
663.039568
 30
75.92613
 70
    64
  0
VERTEX
  8
I-STEEL
  5
956
 10
656.884248
 20
660.539568
 30
75.92613
 70
    64
  0
VERTEX
  8
I-STEEL
  5
957
 10
661.145433
 20
665.539568
 30
84.289177
 70
    64
  0
VERTEX
  8
I-STEEL
  5
958
 10
661.145433
 20
663.039568
 30
84.289177
 70
    64
  0
VERTEX
  8
I-STEEL
  5
959
 10
661.145433
 20
660.539568
 30
84.289177
 70
    64
  0
VERTEX
  8
I-STEEL
  5
95A
 10
662.613738
 20
665.539568
 30
93.559687
 70
    64
  0
VERTEX
  8
I-STEEL
  5
95B
 10
662.613738
 20
663.039568
 30
93.559687
 70
    64
  0
VERTEX
  8
I-STEEL
  5
95C
 10
662.613738
 20
660.539568
 30
93.559687
 70
    64
  0
VERTEX
  8
I-STEEL
  5
95D
 10
661.145433
 20
665.539568
 30
102.830197
 70
    64
  0
VERTEX
  8
I-STEEL
  5
95E
 10
661.145433
 20
663.039568
 30
102.830197
 70
    64
  0
VERTEX
  8
I-STEEL
  5
95F
 10
661.145433
 20
660.539568
 30
102.830197
 70
    64
  0
VERTEX
  8
I-STEEL
  5
960
 10
656.884248
 20
665.539568
 30
111.193245
 70
    64
  0
VERTEX
  8
I-STEEL
  5
961
 10
656.884248
 20
663.039568
 30
111.193245
 70
    64
  0
VERTEX
  8
I-STEEL
  5
962
 10
656.884248
 20
660.539568
 30
111.193245
 70
    64
  0
VERTEX
  8
I-STEEL
  5
963
 10
650.247295
 20
665.539568
 30
117.830197
 70
    64
  0
VERTEX
  8
I-STEEL
  5
964
 10
650.247295
 20
663.039568
 30
117.830197
 70
    64
  0
VERTEX
  8
I-STEEL
  5
965
 10
650.247295
 20
660.539568
 30
117.830197
 70
    64
  0
VERTEX
  8
I-STEEL
  5
966
 10
641.884248
 20
665.539568
 30
122.091383
 70
    64
  0
VERTEX
  8
I-STEEL
  5
967
 10
641.884248
 20
663.039568
 30
122.091383
 70
    64
  0
VERTEX
  8
I-STEEL
  5
968
 10
641.884248
 20
660.539568
 30
122.091383
 70
    64
  0
SEQEND
  8
I-STEEL
  5
969
  0
POLYLINE
  8
I-STEEL
  5
96A
 66
     1
 10
0.0
 20
0.0
 30
0.0
 70
    17
 71
    20
 72
     3
  0
VERTEX
  8
I-STEEL
  5
96B
 10
632.613738
 20
655.539568
 30
108.559687
 70
    64
  0
VERTEX
  8
I-STEEL
  5
96C
 10
632.613738
 20
658.039568
 30
116.059687
 70
    64
  0
VERTEX
  8
I-STEEL
  5
96D
 10
632.613738
 20
660.539568
 30
123.559687
 70
    64
  0
VERTEX
  8
I-STEEL
  5
96E
 10
627.978483
 20
655.539568
 30
107.825535
 70
    64
  0
VERTEX
  8
I-STEEL
  5
96F
 10
625.660855
 20
658.039568
 30
114.958459
 70
    64
  0
VERTEX
  8
I-STEEL
  5
970
 10
623.343228
 20
660.539568
 30
122.091383
 70
    64
  0
VERTEX
  8
I-STEEL
  5
971
 10
623.796959
 20
655.539568
 30
105.694942
 70
    64
  0
VERTEX
  8
I-STEEL
  5
972
 10
619.38857
 20
658.039568
 30
111.76257
 70
    64
  0
VERTEX
  8
I-STEEL
  5
973
 10
614.98018
 20
660.539568
 30
117.830197
 70
    64
  0
VERTEX
  8
I-STEEL
  5
974
 10
620.478483
 20
655.539568
 30
102.376466
 70
    64
  0
VERTEX
  8
I-STEEL
  5
975
 10
614.410855
 20
658.039568
 30
106.784855
 70
    64
  0
VERTEX
  8
I-STEEL
  5
976
 10
608.343228
 20
660.539568
 30
111.193245
 70
    64
  0
VERTEX
  8
I-STEEL
  5
977
 10
618.34789
 20
655.539568
 30
98.194942
 70
    64
  0
VERTEX
  8
I-STEEL
  5
978
 10
611.214966
 20
658.039568
 30
100.51257
 70
    64
  0
VERTEX
  8
I-STEEL
  5
979
 10
604.082042
 20
660.539568
 30
102.830197
 70
    64
  0
VERTEX
  8
I-STEEL
  5
97A
 10
617.613738
 20
655.539568
 30
93.559687
 70
    64
  0
VERTEX
  8
I-STEEL
  5
97B
 10
610.113738
 20
658.039568
 30
93.559687
 70
    64
  0
VERTEX
  8
I-STEEL
  5
97C
 10
602.613738
 20
660.539568
 30
93.559687
 70
    64
  0
VERTEX
  8
I-STEEL
  5
97D
 10
618.34789
 20
655.539568
 30
88.924432
 70
    64
  0
VERTEX
  8
I-STEEL
  5
97E
 10
611.214966
 20
658.039568
 30
86.606805
 70
    64
  0
VERTEX
  8
I-STEEL
  5
97F
 10
604.082042
 20
660.539568
 30
84.289177
 70
    64
  0
VERTEX
  8
I-STEEL
  5
980
 10
620.478483
 20
655.539568
 30
84.742908
 70
    64
  0
VERTEX
  8
I-STEEL
  5
981
 10
614.410855
 20
658.039568
 30
80.334519
 70
    64
  0
VERTEX
  8
I-STEEL
  5
982
 10
608.343228
 20
660.539568
 30
75.92613
 70
    64
  0
VERTEX
  8
I-STEEL
  5
983
 10
623.796959
 20
655.539568
 30
81.424432
 70
    64
  0
VERTEX
  8
I-STEEL
  5
984
 10
619.38857
 20
658.039568
 30
75.356805
 70
    64
  0
VERTEX
  8
I-STEEL
  5
985
 10
614.98018
 20
660.539568
 30
69.289177
 70
    64
  0
VERTEX
  8
I-STEEL
  5
986
 10
627.978483
 20
655.539568
 30
79.29384
 70
    64
  0
VERTEX
  8
I-STEEL
  5
987
 10
625.660855
 20
658.039568
 30
72.160916
 70
    64
  0
VERTEX
  8
I-STEEL
  5
988
 10
623.343228
 20
660.539568
 30
65.027992
 70
    64
  0
VERTEX
  8
I-STEEL
  5
989
 10
632.613738
 20
655.539568
 30
78.559687
 70
    64
  0
VERTEX
  8
I-STEEL
  5
98A
 10
632.613738
 20
658.039568
 30
71.059687
 70
    64
  0
VERTEX
  8
I-STEEL
  5
98B
 10
632.613738
 20
660.539568
 30
63.559687
 70
    64
  0
VERTEX
  8
I-STEEL
  5
98C
 10
637.248993
 20
655.539568
 30
79.29384
 70
    64
  0
VERTEX
  8
I-STEEL
  5
98D
 10
639.56662
 20
658.039568
 30
72.160916
 70
    64
  0
VERTEX
  8
I-STEEL
  5
98E
 10
641.884248
 20
660.539568
 30
65.027992
 70
    64
  0
VERTEX
  8
I-STEEL
  5
98F
 10
641.430517
 20
655.539568
 30
81.424432
 70
    64
  0
VERTEX
  8
I-STEEL
  5
990
 10
645.838906
 20
658.039568
 30
75.356805
 70
    64
  0
VERTEX
  8
I-STEEL
  5
991
 10
650.247295
 20
660.539568
 30
69.289177
 70
    64
  0
VERTEX
  8
I-STEEL
  5
992
 10
644.748993
 20
655.539568
 30
84.742908
 70
    64
  0
VERTEX
  8
I-STEEL
  5
993
 10
650.81662
 20
658.039568
 30
80.334519
 70
    64
  0
VERTEX
  8
I-STEEL
  5
994
 10
656.884248
 20
660.539568
 30
75.92613
 70
    64
  0
VERTEX
  8
I-STEEL
  5
995
 10
646.879586
 20
655.539568
 30
88.924432
 70
    64
  0
VERTEX
  8
I-STEEL
  5
996
 10
654.012509
 20
658.039568
 30
86.606805
 70
    64
  0
VERTEX
  8
I-STEEL
  5
997
 10
661.145433
 20
660.539568
 30
84.289177
 70
    64
  0
VERTEX
  8
I-STEEL
  5
998
 10
647.613738
 20
655.539568
 30
93.559687
 70
    64
  0
VERTEX
  8
I-STEEL
  5
999
 10
655.113738
 20
658.039568
 30
93.559687
 70
    64
  0
VERTEX
  8
I-STEEL
  5
99A
 10
662.613738
 20
660.539568
 30
93.559687
 70
    64
  0
VERTEX
  8
I-STEEL
  5
99B
 10
646.879586
 20
655.539568
 30
98.194942
 70
    64
  0
VERTEX
  8
I-STEEL
  5
99C
 10
654.012509
 20
658.039568
 30
100.51257
 70
    64
  0
VERTEX
  8
I-STEEL
  5
99D
 10
661.145433
 20
660.539568
 30
102.830197
 70
    64
  0
VERTEX
  8
I-STEEL
  5
99E
 10
644.748993
 20
655.539568
 30
102.376466
 70
    64
  0
VERTEX
  8
I-STEEL
  5
99F
 10
650.81662
 20
658.039568
 30
106.784855
 70
    64
  0
VERTEX
  8
I-STEEL
  5
9A0
 10
656.884248
 20
660.539568
 30
111.193245
 70
    64
  0
VERTEX
  8
I-STEEL
  5
9A1
 10
641.430517
 20
655.539568
 30
105.694942
 70
    64
  0
VERTEX
  8
I-STEEL
  5
9A2
 10
645.838906
 20
658.039568
 30
111.76257
 70
    64
  0
VERTEX
  8
I-STEEL
  5
9A3
 10
650.247295
 20
660.539568
 30
117.830197
 70
    64
  0
VERTEX
  8
I-STEEL
  5
9A4
 10
637.248993
 20
655.539568
 30
107.825535
 70
    64
  0
VERTEX
  8
I-STEEL
  5
9A5
 10
639.56662
 20
658.039568
 30
114.958459
 70
    64
  0
VERTEX
  8
I-STEEL
  5
9A6
 10
641.884248
 20
660.539568
 30
122.091383
 70
    64
  0
SEQEND
  8
I-STEEL
  5
9A7
  0
POLYLINE
  8
I-STEEL
  5
9A8
 66
     1
 10
0.0
 20
0.0
 30
0.0
 70
    17
 71
    20
 72
     3
  0
VERTEX
  8
I-STEEL
  5
9A9
 10
632.613738
 20
645.539568
 30
108.559687
 70
    64
  0
VERTEX
  8
I-STEEL
  5
9AA
 10
632.613738
 20
650.539568
 30
108.559687
 70
    64
  0
VERTEX
  8
I-STEEL
  5
9AB
 10
632.613738
 20
655.539568
 30
108.559687
 70
    64
  0
VERTEX
  8
I-STEEL
  5
9AC
 10
627.978483
 20
645.539568
 30
107.825535
 70
    64
  0
VERTEX
  8
I-STEEL
  5
9AD
 10
627.978483
 20
650.539568
 30
107.825535
 70
    64
  0
VERTEX
  8
I-STEEL
  5
9AE
 10
627.978483
 20
655.539568
 30
107.825535
 70
    64
  0
VERTEX
  8
I-STEEL
  5
9AF
 10
623.796959
 20
645.539568
 30
105.694942
 70
    64
  0
VERTEX
  8
I-STEEL
  5
9B0
 10
623.796959
 20
650.539568
 30
105.694942
 70
    64
  0
VERTEX
  8
I-STEEL
  5
9B1
 10
623.796959
 20
655.539568
 30
105.694942
 70
    64
  0
VERTEX
  8
I-STEEL
  5
9B2
 10
620.478483
 20
645.539568
 30
102.376466
 70
    64
  0
VERTEX
  8
I-STEEL
  5
9B3
 10
620.478483
 20
650.539568
 30
102.376466
 70
    64
  0
VERTEX
  8
I-STEEL
  5
9B4
 10
620.478483
 20
655.539568
 30
102.376466
 70
    64
  0
VERTEX
  8
I-STEEL
  5
9B5
 10
618.34789
 20
645.539568
 30
98.194942
 70
    64
  0
VERTEX
  8
I-STEEL
  5
9B6
 10
618.34789
 20
650.539568
 30
98.194942
 70
    64
  0
VERTEX
  8
I-STEEL
  5
9B7
 10
618.34789
 20
655.539568
 30
98.194942
 70
    64
  0
VERTEX
  8
I-STEEL
  5
9B8
 10
617.613738
 20
645.539568
 30
93.559687
 70
    64
  0
VERTEX
  8
I-STEEL
  5
9B9
 10
617.613738
 20
650.539568
 30
93.559687
 70
    64
  0
VERTEX
  8
I-STEEL
  5
9BA
 10
617.613738
 20
655.539568
 30
93.559687
 70
    64
  0
VERTEX
  8
I-STEEL
  5
9BB
 10
618.34789
 20
645.539568
 30
88.924432
 70
    64
  0
VERTEX
  8
I-STEEL
  5
9BC
 10
618.34789
 20
650.539568
 30
88.924432
 70
    64
  0
VERTEX
  8
I-STEEL
  5
9BD
 10
618.34789
 20
655.539568
 30
88.924432
 70
    64
  0
VERTEX
  8
I-STEEL
  5
9BE
 10
620.478483
 20
645.539568
 30
84.742908
 70
    64
  0
VERTEX
  8
I-STEEL
  5
9BF
 10
620.478483
 20
650.539568
 30
84.742908
 70
    64
  0
VERTEX
  8
I-STEEL
  5
9C0
 10
620.478483
 20
655.539568
 30
84.742908
 70
    64
  0
VERTEX
  8
I-STEEL
  5
9C1
 10
623.796959
 20
645.539568
 30
81.424432
 70
    64
  0
VERTEX
  8
I-STEEL
  5
9C2
 10
623.796959
 20
650.539568
 30
81.424432
 70
    64
  0
VERTEX
  8
I-STEEL
  5
9C3
 10
623.796959
 20
655.539568
 30
81.424432
 70
    64
  0
VERTEX
  8
I-STEEL
  5
9C4
 10
627.978483
 20
645.539568
 30
79.29384
 70
    64
  0
VERTEX
  8
I-STEEL
  5
9C5
 10
627.978483
 20
650.539568
 30
79.29384
 70
    64
  0
VERTEX
  8
I-STEEL
  5
9C6
 10
627.978483
 20
655.539568
 30
79.29384
 70
    64
  0
VERTEX
  8
I-STEEL
  5
9C7
 10
632.613738
 20
645.539568
 30
78.559687
 70
    64
  0
VERTEX
  8
I-STEEL
  5
9C8
 10
632.613738
 20
650.539568
 30
78.559687
 70
    64
  0
VERTEX
  8
I-STEEL
  5
9C9
 10
632.613738
 20
655.539568
 30
78.559687
 70
    64
  0
VERTEX
  8
I-STEEL
  5
9CA
 10
637.248993
 20
645.539568
 30
79.29384
 70
    64
  0
VERTEX
  8
I-STEEL
  5
9CB
 10
637.248993
 20
650.539568
 30
79.29384
 70
    64
  0
VERTEX
  8
I-STEEL
  5
9CC
 10
637.248993
 20
655.539568
 30
79.29384
 70
    64
  0
VERTEX
  8
I-STEEL
  5
9CD
 10
641.430517
 20
645.539568
 30
81.424432
 70
    64
  0
VERTEX
  8
I-STEEL
  5
9CE
 10
641.430517
 20
650.539568
 30
81.424432
 70
    64
  0
VERTEX
  8
I-STEEL
  5
9CF
 10
641.430517
 20
655.539568
 30
81.424432
 70
    64
  0
VERTEX
  8
I-STEEL
  5
9D0
 10
644.748993
 20
645.539568
 30
84.742908
 70
    64
  0
VERTEX
  8
I-STEEL
  5
9D1
 10
644.748993
 20
650.539568
 30
84.742908
 70
    64
  0
VERTEX
  8
I-STEEL
  5
9D2
 10
644.748993
 20
655.539568
 30
84.742908
 70
    64
  0
VERTEX
  8
I-STEEL
  5
9D3
 10
646.879586
 20
645.539568
 30
88.924432
 70
    64
  0
VERTEX
  8
I-STEEL
  5
9D4
 10
646.879586
 20
650.539568
 30
88.924432
 70
    64
  0
VERTEX
  8
I-STEEL
  5
9D5
 10
646.879586
 20
655.539568
 30
88.924432
 70
    64
  0
VERTEX
  8
I-STEEL
  5
9D6
 10
647.613738
 20
645.539568
 30
93.559687
 70
    64
  0
VERTEX
  8
I-STEEL
  5
9D7
 10
647.613738
 20
650.539568
 30
93.559687
 70
    64
  0
VERTEX
  8
I-STEEL
  5
9D8
 10
647.613738
 20
655.539568
 30
93.559687
 70
    64
  0
VERTEX
  8
I-STEEL
  5
9D9
 10
646.879586
 20
645.539568
 30
98.194942
 70
    64
  0
VERTEX
  8
I-STEEL
  5
9DA
 10
646.879586
 20
650.539568
 30
98.194942
 70
    64
  0
VERTEX
  8
I-STEEL
  5
9DB
 10
646.879586
 20
655.539568
 30
98.194942
 70
    64
  0
VERTEX
  8
I-STEEL
  5
9DC
 10
644.748993
 20
645.539568
 30
102.376466
 70
    64
  0
VERTEX
  8
I-STEEL
  5
9DD
 10
644.748993
 20
650.539568
 30
102.376466
 70
    64
  0
VERTEX
  8
I-STEEL
  5
9DE
 10
644.748993
 20
655.539568
 30
102.376466
 70
    64
  0
VERTEX
  8
I-STEEL
  5
9DF
 10
641.430517
 20
645.539568
 30
105.694942
 70
    64
  0
VERTEX
  8
I-STEEL
  5
9E0
 10
641.430517
 20
650.539568
 30
105.694942
 70
    64
  0
VERTEX
  8
I-STEEL
  5
9E1
 10
641.430517
 20
655.539568
 30
105.694942
 70
    64
  0
VERTEX
  8
I-STEEL
  5
9E2
 10
637.248993
 20
645.539568
 30
107.825535
 70
    64
  0
VERTEX
  8
I-STEEL
  5
9E3
 10
637.248993
 20
650.539568
 30
107.825535
 70
    64
  0
VERTEX
  8
I-STEEL
  5
9E4
 10
637.248993
 20
655.539568
 30
107.825535
 70
    64
  0
SEQEND
  8
I-STEEL
  5
9E5
  0
POLYLINE
  8
I-STEEL
  5
9E6
 66
     1
 10
0.0
 20
0.0
 30
0.0
 70
    17
 71
    20
 72
     6
  0
VERTEX
  8
I-STEEL
  5
9E7
 10
632.613738
 20
583.539568
 30
33.559687
 70
    64
  0
VERTEX
  8
I-STEEL
  5
9E8
 10
632.613738
 20
583.253094
 30
32.678009
 70
    64
  0
VERTEX
  8
I-STEEL
  5
9E9
 10
632.613738
 20
582.503094
 30
32.133103
 70
    64
  0
VERTEX
  8
I-STEEL
  5
9EA
 10
632.613738
 20
581.576043
 30
32.133103
 70
    64
  0
VERTEX
  8
I-STEEL
  5
9EB
 10
632.613738
 20
580.826043
 30
32.678009
 70
    64
  0
VERTEX
  8
I-STEEL
  5
9EC
 10
632.613738
 20
580.539568
 30
33.559687
 70
    64
  0
VERTEX
  8
I-STEEL
  5
9ED
 10
636.321942
 20
584.12689
 30
33.559687
 70
    64
  0
VERTEX
  8
I-STEEL
  5
9EE
 10
636.410467
 20
583.854436
 30
32.678009
 70
    64
  0
VERTEX
  8
I-STEEL
  5
9EF
 10
636.64223
 20
583.141144
 30
32.133103
 70
    64
  0
VERTEX
  8
I-STEEL
  5
9F0
 10
636.928705
 20
582.259466
 30
32.133103
 70
    64
  0
VERTEX
  8
I-STEEL
  5
9F1
 10
637.160467
 20
581.546174
 30
32.678009
 70
    64
  0
VERTEX
  8
I-STEEL
  5
9F2
 10
637.248993
 20
581.27372
 30
33.559687
 70
    64
  0
VERTEX
  8
I-STEEL
  5
9F3
 10
639.667161
 20
585.831364
 30
33.559687
 70
    64
  0
VERTEX
  8
I-STEEL
  5
9F4
 10
639.835546
 20
585.599601
 30
32.678009
 70
    64
  0
VERTEX
  8
I-STEEL
  5
9F5
 10
640.276385
 20
584.992839
 30
32.133103
 70
    64
  0
VERTEX
  8
I-STEEL
  5
9F6
 10
640.821292
 20
584.242839
 30
32.133103
 70
    64
  0
VERTEX
  8
I-STEEL
  5
9F7
 10
641.262131
 20
583.636076
 30
32.678009
 70
    64
  0
VERTEX
  8
I-STEEL
  5
9F8
 10
641.430517
 20
583.404313
 30
33.559687
 70
    64
  0
VERTEX
  8
I-STEEL
  5
9F9
 10
642.321942
 20
588.486145
 30
33.559687
 70
    64
  0
VERTEX
  8
I-STEEL
  5
9FA
 10
642.553705
 20
588.31776
 30
32.678009
 70
    64
  0
VERTEX
  8
I-STEEL
  5
9FB
 10
643.160467
 20
587.876921
 30
32.133103
 70
    64
  0
VERTEX
  8
I-STEEL
  5
9FC
 10
643.910467
 20
587.332014
 30
32.133103
 70
    64
  0
VERTEX
  8
I-STEEL
  5
9FD
 10
644.51723
 20
586.891175
 30
32.678009
 70
    64
  0
VERTEX
  8
I-STEEL
  5
9FE
 10
644.748993
 20
586.722789
 30
33.559687
 70
    64
  0
VERTEX
  8
I-STEEL
  5
9FF
 10
644.026416
 20
591.831364
 30
33.559687
 70
    64
  0
VERTEX
  8
I-STEEL
  5
A00
 10
644.298869
 20
591.742839
 30
32.678009
 70
    64
  0
VERTEX
  8
I-STEEL
  5
A01
 10
645.012162
 20
591.511076
 30
32.133103
 70
    64
  0
VERTEX
  8
I-STEEL
  5
A02
 10
645.89384
 20
591.224601
 30
32.133103
 70
    64
  0
VERTEX
  8
I-STEEL
  5
A03
 10
646.607132
 20
590.992839
 30
32.678009
 70
    64
  0
VERTEX
  8
I-STEEL
  5
A04
 10
646.879586
 20
590.904313
 30
33.559687
 70
    64
  0
VERTEX
  8
I-STEEL
  5
A05
 10
644.613738
 20
595.539568
 30
33.559687
 70
    64
  0
VERTEX
  8
I-STEEL
  5
A06
 10
644.900212
 20
595.539568
 30
32.678009
 70
    64
  0
VERTEX
  8
I-STEEL
  5
A07
 10
645.650212
 20
595.539568
 30
32.133103
 70
    64
  0
VERTEX
  8
I-STEEL
  5
A08
 10
646.577263
 20
595.539568
 30
32.133103
 70
    64
  0
VERTEX
  8
I-STEEL
  5
A09
 10
647.327263
 20
595.539568
 30
32.678009
 70
    64
  0
VERTEX
  8
I-STEEL
  5
A0A
 10
647.613738
 20
595.539568
 30
33.559687
 70
    64
  0
VERTEX
  8
I-STEEL
  5
A0B
 10
644.026416
 20
599.247772
 30
33.559687
 70
    64
  0
VERTEX
  8
I-STEEL
  5
A0C
 10
644.298869
 20
599.336298
 30
32.678009
 70
    64
  0
VERTEX
  8
I-STEEL
  5
A0D
 10
645.012162
 20
599.56806
 30
32.133103
 70
    64
  0
VERTEX
  8
I-STEEL
  5
A0E
 10
645.89384
 20
599.854535
 30
32.133103
 70
    64
  0
VERTEX
  8
I-STEEL
  5
A0F
 10
646.607132
 20
600.086298
 30
32.678009
 70
    64
  0
VERTEX
  8
I-STEEL
  5
A10
 10
646.879586
 20
600.174823
 30
33.559687
 70
    64
  0
VERTEX
  8
I-STEEL
  5
A11
 10
642.321942
 20
602.592991
 30
33.559687
 70
    64
  0
VERTEX
  8
I-STEEL
  5
A12
 10
642.553705
 20
602.761377
 30
32.678009
 70
    64
  0
VERTEX
  8
I-STEEL
  5
A13
 10
643.160467
 20
603.202216
 30
32.133103
 70
    64
  0
VERTEX
  8
I-STEEL
  5
A14
 10
643.910467
 20
603.747122
 30
32.133103
 70
    64
  0
VERTEX
  8
I-STEEL
  5
A15
 10
644.51723
 20
604.187961
 30
32.678009
 70
    64
  0
VERTEX
  8
I-STEEL
  5
A16
 10
644.748993
 20
604.356347
 30
33.559687
 70
    64
  0
VERTEX
  8
I-STEEL
  5
A17
 10
639.667161
 20
605.247772
 30
33.559687
 70
    64
  0
VERTEX
  8
I-STEEL
  5
A18
 10
639.835546
 20
605.479535
 30
32.678009
 70
    64
  0
VERTEX
  8
I-STEEL
  5
A19
 10
640.276385
 20
606.086298
 30
32.133103
 70
    64
  0
VERTEX
  8
I-STEEL
  5
A1A
 10
640.821292
 20
606.836298
 30
32.133103
 70
    64
  0
VERTEX
  8
I-STEEL
  5
A1B
 10
641.262131
 20
607.44306
 30
32.678009
 70
    64
  0
VERTEX
  8
I-STEEL
  5
A1C
 10
641.430517
 20
607.674823
 30
33.559687
 70
    64
  0
VERTEX
  8
I-STEEL
  5
A1D
 10
636.321942
 20
606.952246
 30
33.559687
 70
    64
  0
VERTEX
  8
I-STEEL
  5
A1E
 10
636.410467
 20
607.2247
 30
32.678009
 70
    64
  0
VERTEX
  8
I-STEEL
  5
A1F
 10
636.64223
 20
607.937992
 30
32.133103
 70
    64
  0
VERTEX
  8
I-STEEL
  5
A20
 10
636.928705
 20
608.81967
 30
32.133103
 70
    64
  0
VERTEX
  8
I-STEEL
  5
A21
 10
637.160467
 20
609.532962
 30
32.678009
 70
    64
  0
VERTEX
  8
I-STEEL
  5
A22
 10
637.248993
 20
609.805416
 30
33.559687
 70
    64
  0
VERTEX
  8
I-STEEL
  5
A23
 10
632.613738
 20
607.539568
 30
33.559687
 70
    64
  0
VERTEX
  8
I-STEEL
  5
A24
 10
632.613738
 20
607.826043
 30
32.678009
 70
    64
  0
VERTEX
  8
I-STEEL
  5
A25
 10
632.613738
 20
608.576043
 30
32.133103
 70
    64
  0
VERTEX
  8
I-STEEL
  5
A26
 10
632.613738
 20
609.503094
 30
32.133103
 70
    64
  0
VERTEX
  8
I-STEEL
  5
A27
 10
632.613738
 20
610.253094
 30
32.678009
 70
    64
  0
VERTEX
  8
I-STEEL
  5
A28
 10
632.613738
 20
610.539568
 30
33.559687
 70
    64
  0
VERTEX
  8
I-STEEL
  5
A29
 10
628.905534
 20
606.952246
 30
33.559687
 70
    64
  0
VERTEX
  8
I-STEEL
  5
A2A
 10
628.817008
 20
607.2247
 30
32.678009
 70
    64
  0
VERTEX
  8
I-STEEL
  5
A2B
 10
628.585246
 20
607.937992
 30
32.133103
 70
    64
  0
VERTEX
  8
I-STEEL
  5
A2C
 10
628.298771
 20
608.81967
 30
32.133103
 70
    64
  0
VERTEX
  8
I-STEEL
  5
A2D
 10
628.067008
 20
609.532962
 30
32.678009
 70
    64
  0
VERTEX
  8
I-STEEL
  5
A2E
 10
627.978483
 20
609.805416
 30
33.559687
 70
    64
  0
VERTEX
  8
I-STEEL
  5
A2F
 10
625.560315
 20
605.247772
 30
33.559687
 70
    64
  0
VERTEX
  8
I-STEEL
  5
A30
 10
625.391929
 20
605.479535
 30
32.678009
 70
    64
  0
VERTEX
  8
I-STEEL
  5
A31
 10
624.95109
 20
606.086298
 30
32.133103
 70
    64
  0
VERTEX
  8
I-STEEL
  5
A32
 10
624.406183
 20
606.836298
 30
32.133103
 70
    64
  0
VERTEX
  8
I-STEEL
  5
A33
 10
623.965345
 20
607.44306
 30
32.678009
 70
    64
  0
VERTEX
  8
I-STEEL
  5
A34
 10
623.796959
 20
607.674823
 30
33.559687
 70
    64
  0
VERTEX
  8
I-STEEL
  5
A35
 10
622.905534
 20
602.592991
 30
33.559687
 70
    64
  0
VERTEX
  8
I-STEEL
  5
A36
 10
622.673771
 20
602.761377
 30
32.678009
 70
    64
  0
VERTEX
  8
I-STEEL
  5
A37
 10
622.067008
 20
603.202216
 30
32.133103
 70
    64
  0
VERTEX
  8
I-STEEL
  5
A38
 10
621.317008
 20
603.747122
 30
32.133103
 70
    64
  0
VERTEX
  8
I-STEEL
  5
A39
 10
620.710246
 20
604.187961
 30
32.678009
 70
    64
  0
VERTEX
  8
I-STEEL
  5
A3A
 10
620.478483
 20
604.356347
 30
33.559687
 70
    64
  0
VERTEX
  8
I-STEEL
  5
A3B
 10
621.20106
 20
599.247772
 30
33.559687
 70
    64
  0
VERTEX
  8
I-STEEL
  5
A3C
 10
620.928606
 20
599.336298
 30
32.678009
 70
    64
  0
VERTEX
  8
I-STEEL
  5
A3D
 10
620.215314
 20
599.56806
 30
32.133103
 70
    64
  0
VERTEX
  8
I-STEEL
  5
A3E
 10
619.333636
 20
599.854535
 30
32.133103
 70
    64
  0
VERTEX
  8
I-STEEL
  5
A3F
 10
618.620344
 20
600.086298
 30
32.678009
 70
    64
  0
VERTEX
  8
I-STEEL
  5
A40
 10
618.34789
 20
600.174823
 30
33.559687
 70
    64
  0
VERTEX
  8
I-STEEL
  5
A41
 10
620.613738
 20
595.539568
 30
33.559687
 70
    64
  0
VERTEX
  8
I-STEEL
  5
A42
 10
620.327263
 20
595.539568
 30
32.678009
 70
    64
  0
VERTEX
  8
I-STEEL
  5
A43
 10
619.577263
 20
595.539568
 30
32.133103
 70
    64
  0
VERTEX
  8
I-STEEL
  5
A44
 10
618.650212
 20
595.539568
 30
32.133103
 70
    64
  0
VERTEX
  8
I-STEEL
  5
A45
 10
617.900212
 20
595.539568
 30
32.678009
 70
    64
  0
VERTEX
  8
I-STEEL
  5
A46
 10
617.613738
 20
595.539568
 30
33.559687
 70
    64
  0
VERTEX
  8
I-STEEL
  5
A47
 10
621.20106
 20
591.831364
 30
33.559687
 70
    64
  0
VERTEX
  8
I-STEEL
  5
A48
 10
620.928606
 20
591.742839
 30
32.678009
 70
    64
  0
VERTEX
  8
I-STEEL
  5
A49
 10
620.215314
 20
591.511076
 30
32.133103
 70
    64
  0
VERTEX
  8
I-STEEL
  5
A4A
 10
619.333636
 20
591.224601
 30
32.133103
 70
    64
  0
VERTEX
  8
I-STEEL
  5
A4B
 10
618.620344
 20
590.992839
 30
32.678009
 70
    64
  0
VERTEX
  8
I-STEEL
  5
A4C
 10
618.34789
 20
590.904313
 30
33.559687
 70
    64
  0
VERTEX
  8
I-STEEL
  5
A4D
 10
622.905534
 20
588.486145
 30
33.559687
 70
    64
  0
VERTEX
  8
I-STEEL
  5
A4E
 10
622.673771
 20
588.31776
 30
32.678009
 70
    64
  0
VERTEX
  8
I-STEEL
  5
A4F
 10
622.067008
 20
587.876921
 30
32.133103
 70
    64
  0
VERTEX
  8
I-STEEL
  5
A50
 10
621.317008
 20
587.332014
 30
32.133103
 70
    64
  0
VERTEX
  8
I-STEEL
  5
A51
 10
620.710246
 20
586.891175
 30
32.678009
 70
    64
  0
VERTEX
  8
I-STEEL
  5
A52
 10
620.478483
 20
586.722789
 30
33.559687
 70
    64
  0
VERTEX
  8
I-STEEL
  5
A53
 10
625.560315
 20
585.831364
 30
33.559687
 70
    64
  0
VERTEX
  8
I-STEEL
  5
A54
 10
625.391929
 20
585.599601
 30
32.678009
 70
    64
  0
VERTEX
  8
I-STEEL
  5
A55
 10
624.95109
 20
584.992839
 30
32.133103
 70
    64
  0
VERTEX
  8
I-STEEL
  5
A56
 10
624.406183
 20
584.242839
 30
32.133103
 70
    64
  0
VERTEX
  8
I-STEEL
  5
A57
 10
623.965345
 20
583.636076
 30
32.678009
 70
    64
  0
VERTEX
  8
I-STEEL
  5
A58
 10
623.796959
 20
583.404313
 30
33.559687
 70
    64
  0
VERTEX
  8
I-STEEL
  5
A59
 10
628.905534
 20
584.12689
 30
33.559687
 70
    64
  0
VERTEX
  8
I-STEEL
  5
A5A
 10
628.817008
 20
583.854436
 30
32.678009
 70
    64
  0
VERTEX
  8
I-STEEL
  5
A5B
 10
628.585246
 20
583.141144
 30
32.133103
 70
    64
  0
VERTEX
  8
I-STEEL
  5
A5C
 10
628.298771
 20
582.259466
 30
32.133103
 70
    64
  0
VERTEX
  8
I-STEEL
  5
A5D
 10
628.067008
 20
581.546174
 30
32.678009
 70
    64
  0
VERTEX
  8
I-STEEL
  5
A5E
 10
627.978483
 20
581.27372
 30
33.559687
 70
    64
  0
SEQEND
  8
I-STEEL
  5
A5F
  0
POLYLINE
  8
I-STEEL
  5
A60
 66
     1
 10
0.0
 20
0.0
 30
0.0
 70
    16
 71
     2
 72
    11
  0
VERTEX
  8
I-STEEL
  5
A61
 10
632.613738
 20
610.539568
 30
33.559687
 70
    64
  0
VERTEX
  8
I-STEEL
  5
A62
 10
637.248993
 20
609.805416
 30
33.559687
 70
    64
  0
VERTEX
  8
I-STEEL
  5
A63
 10
641.430517
 20
607.674823
 30
33.559687
 70
    64
  0
VERTEX
  8
I-STEEL
  5
A64
 10
644.748993
 20
604.356347
 30
33.559687
 70
    64
  0
VERTEX
  8
I-STEEL
  5
A65
 10
646.879586
 20
600.174823
 30
33.559687
 70
    64
  0
VERTEX
  8
I-STEEL
  5
A66
 10
647.613738
 20
595.539568
 30
33.559687
 70
    64
  0
VERTEX
  8
I-STEEL
  5
A67
 10
646.879586
 20
590.904313
 30
33.559687
 70
    64
  0
VERTEX
  8
I-STEEL
  5
A68
 10
644.748993
 20
586.722789
 30
33.559687
 70
    64
  0
VERTEX
  8
I-STEEL
  5
A69
 10
641.430517
 20
583.404313
 30
33.559687
 70
    64
  0
VERTEX
  8
I-STEEL
  5
A6A
 10
637.248993
 20
581.27372
 30
33.559687
 70
    64
  0
VERTEX
  8
I-STEEL
  5
A6B
 10
632.613738
 20
580.539568
 30
33.559687
 70
    64
  0
VERTEX
  8
I-STEEL
  5
A6C
 10
632.613738
 20
610.539568
 30
43.559687
 70
    64
  0
VERTEX
  8
I-STEEL
  5
A6D
 10
637.248993
 20
609.805416
 30
43.559687
 70
    64
  0
VERTEX
  8
I-STEEL
  5
A6E
 10
641.430517
 20
607.674823
 30
43.559687
 70
    64
  0
VERTEX
  8
I-STEEL
  5
A6F
 10
644.748993
 20
604.356347
 30
43.559687
 70
    64
  0
VERTEX
  8
I-STEEL
  5
A70
 10
646.879586
 20
600.174823
 30
43.559687
 70
    64
  0
VERTEX
  8
I-STEEL
  5
A71
 10
647.613738
 20
595.539568
 30
43.559687
 70
    64
  0
VERTEX
  8
I-STEEL
  5
A72
 10
646.879586
 20
590.904313
 30
43.559687
 70
    64
  0
VERTEX
  8
I-STEEL
  5
A73
 10
644.748993
 20
586.722789
 30
43.559687
 70
    64
  0
VERTEX
  8
I-STEEL
  5
A74
 10
641.430517
 20
583.404313
 30
43.559687
 70
    64
  0
VERTEX
  8
I-STEEL
  5
A75
 10
637.248993
 20
581.27372
 30
43.559687
 70
    64
  0
VERTEX
  8
I-STEEL
  5
A76
 10
632.613738
 20
580.539568
 30
43.559687
 70
    64
  0
SEQEND
  8
I-STEEL
  5
A77
  0
POLYLINE
  8
I-STEEL
  5
A78
 66
     1
 10
0.0
 20
0.0
 30
0.0
 70
    16
 71
    11
 72
    11
  0
VERTEX
  8
I-STEEL
  5
A79
 10
632.613738
 20
610.539568
 30
43.559687
 70
    64
  0
VERTEX
  8
I-STEEL
  5
A7A
 10
627.978483
 20
609.805416
 30
43.559687
 70
    64
  0
VERTEX
  8
I-STEEL
  5
A7B
 10
623.796959
 20
607.674823
 30
43.559687
 70
    64
  0
VERTEX
  8
I-STEEL
  5
A7C
 10
620.478483
 20
604.356347
 30
43.559687
 70
    64
  0
VERTEX
  8
I-STEEL
  5
A7D
 10
618.34789
 20
600.174823
 30
43.559687
 70
    64
  0
VERTEX
  8
I-STEEL
  5
A7E
 10
617.613738
 20
595.539568
 30
43.559687
 70
    64
  0
VERTEX
  8
I-STEEL
  5
A7F
 10
618.34789
 20
590.904313
 30
43.559687
 70
    64
  0
VERTEX
  8
I-STEEL
  5
A80
 10
620.478483
 20
586.722789
 30
43.559687
 70
    64
  0
VERTEX
  8
I-STEEL
  5
A81
 10
623.796959
 20
583.404313
 30
43.559687
 70
    64
  0
VERTEX
  8
I-STEEL
  5
A82
 10
627.978483
 20
581.27372
 30
43.559687
 70
    64
  0
VERTEX
  8
I-STEEL
  5
A83
 10
632.613738
 20
580.539568
 30
43.559687
 70
    64
  0
VERTEX
  8
I-STEEL
  5
A84
 10
632.613738
 20
610.970476
 30
49.034894
 70
    64
  0
VERTEX
  8
I-STEEL
  5
A85
 10
627.978483
 20
610.245363
 30
49.14974
 70
    64
  0
VERTEX
  8
I-STEEL
  5
A86
 10
623.796959
 20
608.141001
 30
49.483038
 70
    64
  0
VERTEX
  8
I-STEEL
  5
A87
 10
620.478483
 20
604.863381
 30
50.002162
 70
    64
  0
VERTEX
  8
I-STEEL
  5
A88
 10
618.34789
 20
600.733338
 30
50.656297
 70
    64
  0
VERTEX
  8
I-STEEL
  5
A89
 10
617.613738
 20
596.155151
 30
51.381411
 70
    64
  0
VERTEX
  8
I-STEEL
  5
A8A
 10
618.34789
 20
591.576964
 30
52.106524
 70
    64
  0
VERTEX
  8
I-STEEL
  5
A8B
 10
620.478483
 20
587.446921
 30
52.760659
 70
    64
  0
VERTEX
  8
I-STEEL
  5
A8C
 10
623.796959
 20
584.169301
 30
53.279783
 70
    64
  0
VERTEX
  8
I-STEEL
  5
A8D
 10
627.978483
 20
582.06494
 30
53.613081
 70
    64
  0
VERTEX
  8
I-STEEL
  5
A8E
 10
632.613738
 20
581.339826
 30
53.727928
 70
    64
  0
VERTEX
  8
I-STEEL
  5
A8F
 10
632.613738
 20
612.25259
 30
54.375282
 70
    64
  0
VERTEX
  8
I-STEEL
  5
A90
 10
627.978483
 20
611.55437
 30
54.602148
 70
    64
  0
VERTEX
  8
I-STEEL
  5
A91
 10
623.796959
 20
609.528056
 30
55.260537
 70
    64
  0
VERTEX
  8
I-STEEL
  5
A92
 10
620.478483
 20
606.371997
 30
56.286003
 70
    64
  0
VERTEX
  8
I-STEEL
  5
A93
 10
618.34789
 20
602.395132
 30
57.578164
 70
    64
  0
VERTEX
  8
I-STEEL
  5
A94
 10
617.613738
 20
597.986742
 30
59.010537
 70
    64
  0
VERTEX
  8
I-STEEL
  5
A95
 10
618.34789
 20
593.578353
 30
60.44291
 70
    64
  0
VERTEX
  8
I-STEEL
  5
A96
 10
620.478483
 20
589.601487
 30
61.735071
 70
    64
  0
VERTEX
  8
I-STEEL
  5
A97
 10
623.796959
 20
586.445429
 30
62.760537
 70
    64
  0
VERTEX
  8
I-STEEL
  5
A98
 10
627.978483
 20
584.419115
 30
63.418926
 70
    64
  0
VERTEX
  8
I-STEEL
  5
A99
 10
632.613738
 20
583.720895
 30
63.645792
 70
    64
  0
VERTEX
  8
I-STEEL
  5
A9A
 10
632.613738
 20
614.35434
 30
59.449355
 70
    64
  0
VERTEX
  8
I-STEEL
  5
A9B
 10
627.978483
 20
613.700205
 30
59.782653
 70
    64
  0
VERTEX
  8
I-STEEL
  5
A9C
 10
623.796959
 20
611.801833
 30
60.749922
 70
    64
  0
VERTEX
  8
I-STEEL
  5
A9D
 10
620.478483
 20
608.845049
 30
62.256478
 70
    64
  0
VERTEX
  8
I-STEEL
  5
A9E
 10
618.34789
 20
605.119284
 30
64.154851
 70
    64
  0
VERTEX
  8
I-STEEL
  5
A9F
 10
617.613738
 20
600.989242
 30
66.259212
 70
    64
  0
VERTEX
  8
I-STEEL
  5
AA0
 10
618.34789
 20
596.8592
 30
68.363574
 70
    64
  0
VERTEX
  8
I-STEEL
  5
AA1
 10
620.478483
 20
593.133434
 30
70.261946
 70
    64
  0
VERTEX
  8
I-STEEL
  5
AA2
 10
623.796959
 20
590.176651
 30
71.768503
 70
    64
  0
VERTEX
  8
I-STEEL
  5
AA3
 10
627.978483
 20
588.278278
 30
72.735772
 70
    64
  0
VERTEX
  8
I-STEEL
  5
AA4
 10
632.613738
 20
587.624144
 30
73.06907
 70
    64
  0
VERTEX
  8
I-STEEL
  5
AA5
 10
632.613738
 20
617.223973
 30
64.132171
 70
    64
  0
VERTEX
  8
I-STEEL
  5
AA6
 10
627.978483
 20
616.630032
 30
64.563695
 70
    64
  0
VERTEX
  8
I-STEEL
  5
AA7
 10
623.796959
 20
614.906346
 30
65.816026
 70
    64
  0
VERTEX
  8
I-STEEL
  5
AA8
 10
620.478483
 20
612.221642
 30
67.766577
 70
    64
  0
VERTEX
  8
I-STEEL
  5
AA9
 10
618.34789
 20
608.838718
 30
70.224415
 70
    64
  0
VERTEX
  8
I-STEEL
  5
AAA
 10
617.613738
 20
605.088718
 30
72.94895
 70
    64
  0
VERTEX
  8
I-STEEL
  5
AAB
 10
618.34789
 20
601.338718
 30
75.673484
 70
    64
  0
VERTEX
  8
I-STEEL
  5
AAC
 10
620.478483
 20
597.955794
 30
78.131322
 70
    64
  0
VERTEX
  8
I-STEEL
  5
AAD
 10
623.796959
 20
595.271091
 30
80.081874
 70
    64
  0
VERTEX
  8
I-STEEL
  5
AAE
 10
627.978483
 20
593.547405
 30
81.334205
 70
    64
  0
VERTEX
  8
I-STEEL
  5
AAF
 10
632.613738
 20
592.953463
 30
81.765729
 70
    64
  0
VERTEX
  8
I-STEEL
  5
AB0
 10
632.613738
 20
620.790831
 30
68.308425
 70
    64
  0
VERTEX
  8
I-STEEL
  5
AB1
 10
627.978483
 20
620.271707
 30
68.827549
 70
    64
  0
VERTEX
  8
I-STEEL
  5
AB2
 10
623.796959
 20
618.76515
 30
70.334105
 70
    64
  0
VERTEX
  8
I-STEEL
  5
AB3
 10
620.478483
 20
616.418633
 30
72.680622
 70
    64
  0
VERTEX
  8
I-STEEL
  5
AB4
 10
618.34789
 20
613.461849
 30
75.637406
 70
    64
  0
VERTEX
  8
I-STEEL
  5
AB5
 10
617.613738
 20
610.184229
 30
78.915026
 70
    64
  0
VERTEX
  8
I-STEEL
  5
AB6
 10
618.34789
 20
606.906609
 30
82.192647
 70
    64
  0
VERTEX
  8
I-STEEL
  5
AB7
 10
620.478483
 20
603.949825
 30
85.14943
 70
    64
  0
VERTEX
  8
I-STEEL
  5
AB8
 10
623.796959
 20
601.603308
 30
87.495947
 70
    64
  0
VERTEX
  8
I-STEEL
  5
AB9
 10
627.978483
 20
600.096751
 30
89.002504
 70
    64
  0
VERTEX
  8
I-STEEL
  5
ABA
 10
632.613738
 20
599.577627
 30
89.521628
 70
    64
  0
VERTEX
  8
I-STEEL
  5
ABB
 10
632.613738
 20
624.967084
 30
71.875282
 70
    64
  0
VERTEX
  8
I-STEEL
  5
ABC
 10
627.978483
 20
624.53556
 30
72.469224
 70
    64
  0
VERTEX
  8
I-STEEL
  5
ABD
 10
623.796959
 20
623.283229
 30
74.19291
 70
    64
  0
VERTEX
  8
I-STEEL
  5
ABE
 10
620.478483
 20
621.332678
 30
76.877613
 70
    64
  0
VERTEX
  8
I-STEEL
  5
ABF
 10
618.34789
 20
618.87484
 30
80.260537
 70
    64
  0
VERTEX
  8
I-STEEL
  5
AC0
 10
617.613738
 20
616.150305
 30
84.010537
 70
    64
  0
VERTEX
  8
I-STEEL
  5
AC1
 10
618.34789
 20
613.425771
 30
87.760537
 70
    64
  0
VERTEX
  8
I-STEEL
  5
AC2
 10
620.478483
 20
610.967933
 30
91.143461
 70
    64
  0
VERTEX
  8
I-STEEL
  5
AC3
 10
623.796959
 20
609.017382
 30
93.828164
 70
    64
  0
VERTEX
  8
I-STEEL
  5
AC4
 10
627.978483
 20
607.765051
 30
95.55185
 70
    64
  0
VERTEX
  8
I-STEEL
  5
AC5
 10
632.613738
 20
607.333527
 30
96.145792
 70
    64
  0
VERTEX
  8
I-STEEL
  5
AC6
 10
632.613738
 20
629.649901
 30
74.744916
 70
    64
  0
VERTEX
  8
I-STEEL
  5
AC7
 10
627.978483
 20
629.316602
 30
75.39905
 70
    64
  0
VERTEX
  8
I-STEEL
  5
AC8
 10
623.796959
 20
628.349334
 30
77.297422
 70
    64
  0
VERTEX
  8
I-STEEL
  5
AC9
 10
620.478483
 20
626.842777
 30
80.254206
 70
    64
  0
VERTEX
  8
I-STEEL
  5
ACA
 10
618.34789
 20
624.944405
 30
83.979971
 70
    64
  0
VERTEX
  8
I-STEEL
  5
ACB
 10
617.613738
 20
622.840043
 30
88.110013
 70
    64
  0
VERTEX
  8
I-STEEL
  5
ACC
 10
618.34789
 20
620.735681
 30
92.240056
 70
    64
  0
VERTEX
  8
I-STEEL
  5
ACD
 10
620.478483
 20
618.837309
 30
95.965821
 70
    64
  0
VERTEX
  8
I-STEEL
  5
ACE
 10
623.796959
 20
617.330753
 30
98.922605
 70
    64
  0
VERTEX
  8
I-STEEL
  5
ACF
 10
627.978483
 20
616.363484
 30
100.820977
 70
    64
  0
VERTEX
  8
I-STEEL
  5
AD0
 10
632.613738
 20
616.030186
 30
101.475111
 70
    64
  0
VERTEX
  8
I-STEEL
  5
AD1
 10
632.613738
 20
634.723973
 30
76.846665
 70
    64
  0
VERTEX
  8
I-STEEL
  5
AD2
 10
627.978483
 20
634.497108
 30
77.544886
 70
    64
  0
VERTEX
  8
I-STEEL
  5
AD3
 10
623.796959
 20
633.838718
 30
79.5712
 70
    64
  0
VERTEX
  8
I-STEEL
  5
AD4
 10
620.478483
 20
632.813253
 30
82.727258
 70
    64
  0
VERTEX
  8
I-STEEL
  5
AD5
 10
618.34789
 20
631.521091
 30
86.704124
 70
    64
  0
VERTEX
  8
I-STEEL
  5
AD6
 10
617.613738
 20
630.088718
 30
91.112513
 70
    64
  0
VERTEX
  8
I-STEEL
  5
AD7
 10
618.34789
 20
628.656346
 30
95.520902
 70
    64
  0
VERTEX
  8
I-STEEL
  5
AD8
 10
620.478483
 20
627.364184
 30
99.497768
 70
    64
  0
VERTEX
  8
I-STEEL
  5
AD9
 10
623.796959
 20
626.338718
 30
102.653826
 70
    64
  0
VERTEX
  8
I-STEEL
  5
ADA
 10
627.978483
 20
625.680329
 30
104.680141
 70
    64
  0
VERTEX
  8
I-STEEL
  5
ADB
 10
632.613738
 20
625.453463
 30
105.378361
 70
    64
  0
VERTEX
  8
I-STEEL
  5
ADC
 10
632.613738
 20
640.064362
 30
78.128779
 70
    64
  0
VERTEX
  8
I-STEEL
  5
ADD
 10
627.978483
 20
639.949515
 30
78.853893
 70
    64
  0
VERTEX
  8
I-STEEL
  5
ADE
 10
623.796959
 20
639.616217
 30
80.958255
 70
    64
  0
VERTEX
  8
I-STEEL
  5
ADF
 10
620.478483
 20
639.097093
 30
84.235875
 70
    64
  0
VERTEX
  8
I-STEEL
  5
AE0
 10
618.34789
 20
638.442958
 30
88.365917
 70
    64
  0
VERTEX
  8
I-STEEL
  5
AE1
 10
617.613738
 20
637.717845
 30
92.944104
 70
    64
  0
VERTEX
  8
I-STEEL
  5
AE2
 10
618.34789
 20
636.992731
 30
97.522292
 70
    64
  0
VERTEX
  8
I-STEEL
  5
AE3
 10
620.478483
 20
636.338597
 30
101.652334
 70
    64
  0
VERTEX
  8
I-STEEL
  5
AE4
 10
623.796959
 20
635.819473
 30
104.929954
 70
    64
  0
VERTEX
  8
I-STEEL
  5
AE5
 10
627.978483
 20
635.486175
 30
107.034316
 70
    64
  0
VERTEX
  8
I-STEEL
  5
AE6
 10
632.613738
 20
635.371328
 30
107.759429
 70
    64
  0
VERTEX
  8
I-STEEL
  5
AE7
 10
632.613738
 20
645.539568
 30
78.559687
 70
    64
  0
VERTEX
  8
I-STEEL
  5
AE8
 10
627.978483
 20
645.539568
 30
79.29384
 70
    64
  0
VERTEX
  8
I-STEEL
  5
AE9
 10
623.796959
 20
645.539568
 30
81.424432
 70
    64
  0
VERTEX
  8
I-STEEL
  5
AEA
 10
620.478483
 20
645.539568
 30
84.742908
 70
    64
  0
VERTEX
  8
I-STEEL
  5
AEB
 10
618.34789
 20
645.539568
 30
88.924432
 70
    64
  0
VERTEX
  8
I-STEEL
  5
AEC
 10
617.613738
 20
645.539568
 30
93.559687
 70
    64
  0
VERTEX
  8
I-STEEL
  5
AED
 10
618.34789
 20
645.539568
 30
98.194942
 70
    64
  0
VERTEX
  8
I-STEEL
  5
AEE
 10
620.478483
 20
645.539568
 30
102.376466
 70
    64
  0
VERTEX
  8
I-STEEL
  5
AEF
 10
623.796959
 20
645.539568
 30
105.694942
 70
    64
  0
VERTEX
  8
I-STEEL
  5
AF0
 10
627.978483
 20
645.539568
 30
107.825535
 70
    64
  0
VERTEX
  8
I-STEEL
  5
AF1
 10
632.613738
 20
645.539568
 30
108.559687
 70
    64
  0
SEQEND
  8
I-STEEL
  5
AF2
  0
POLYLINE
  8
I-STEEL
  5
AF3
 66
     1
 10
0.0
 20
0.0
 30
0.0
 70
    16
 71
     2
 72
    11
  0
VERTEX
  8
I-STEEL
  5
AF4
 10
632.613738
 20
610.539568
 30
33.559687
 70
    64
  0
VERTEX
  8
I-STEEL
  5
AF5
 10
627.978483
 20
609.805416
 30
33.559687
 70
    64
  0
VERTEX
  8
I-STEEL
  5
AF6
 10
623.796959
 20
607.674823
 30
33.559687
 70
    64
  0
VERTEX
  8
I-STEEL
  5
AF7
 10
620.478483
 20
604.356347
 30
33.559687
 70
    64
  0
VERTEX
  8
I-STEEL
  5
AF8
 10
618.34789
 20
600.174823
 30
33.559687
 70
    64
  0
VERTEX
  8
I-STEEL
  5
AF9
 10
617.613738
 20
595.539568
 30
33.559687
 70
    64
  0
VERTEX
  8
I-STEEL
  5
AFA
 10
618.34789
 20
590.904313
 30
33.559687
 70
    64
  0
VERTEX
  8
I-STEEL
  5
AFB
 10
620.478483
 20
586.722789
 30
33.559687
 70
    64
  0
VERTEX
  8
I-STEEL
  5
AFC
 10
623.796959
 20
583.404313
 30
33.559687
 70
    64
  0
VERTEX
  8
I-STEEL
  5
AFD
 10
627.978483
 20
581.27372
 30
33.559687
 70
    64
  0
VERTEX
  8
I-STEEL
  5
AFE
 10
632.613738
 20
580.539568
 30
33.559687
 70
    64
  0
VERTEX
  8
I-STEEL
  5
AFF
 10
632.613738
 20
610.539568
 30
43.559687
 70
    64
  0
VERTEX
  8
I-STEEL
  5
B00
 10
627.978483
 20
609.805416
 30
43.559687
 70
    64
  0
VERTEX
  8
I-STEEL
  5
B01
 10
623.796959
 20
607.674823
 30
43.559687
 70
    64
  0
VERTEX
  8
I-STEEL
  5
B02
 10
620.478483
 20
604.356347
 30
43.559687
 70
    64
  0
VERTEX
  8
I-STEEL
  5
B03
 10
618.34789
 20
600.174823
 30
43.559687
 70
    64
  0
VERTEX
  8
I-STEEL
  5
B04
 10
617.613738
 20
595.539568
 30
43.559687
 70
    64
  0
VERTEX
  8
I-STEEL
  5
B05
 10
618.34789
 20
590.904313
 30
43.559687
 70
    64
  0
VERTEX
  8
I-STEEL
  5
B06
 10
620.478483
 20
586.722789
 30
43.559687
 70
    64
  0
VERTEX
  8
I-STEEL
  5
B07
 10
623.796959
 20
583.404313
 30
43.559687
 70
    64
  0
VERTEX
  8
I-STEEL
  5
B08
 10
627.978483
 20
581.27372
 30
43.559687
 70
    64
  0
VERTEX
  8
I-STEEL
  5
B09
 10
632.613738
 20
580.539568
 30
43.559687
 70
    64
  0
SEQEND
  8
I-STEEL
  5
B0A
  0
POLYLINE
  8
I-STEEL
  5
B0C
 66
     1
 10
0.0
 20
0.0
 30
0.0
 70
    17
 71
    20
 72
     3
  0
VERTEX
  8
I-STEEL
  5
B0D
 10
552.613738
 20
655.539568
 30
108.559687
 70
    64
  0
VERTEX
  8
I-STEEL
  5
B0E
 10
552.613738
 20
658.039568
 30
116.059687
 70
    64
  0
VERTEX
  8
I-STEEL
  5
B0F
 10
552.613738
 20
660.539568
 30
123.559687
 70
    64
  0
VERTEX
  8
I-STEEL
  5
B10
 10
547.978483
 20
655.539568
 30
107.825535
 70
    64
  0
VERTEX
  8
I-STEEL
  5
B11
 10
545.660855
 20
658.039568
 30
114.958459
 70
    64
  0
VERTEX
  8
I-STEEL
  5
B12
 10
543.343228
 20
660.539568
 30
122.091383
 70
    64
  0
VERTEX
  8
I-STEEL
  5
B13
 10
543.796959
 20
655.539568
 30
105.694942
 70
    64
  0
VERTEX
  8
I-STEEL
  5
B14
 10
539.38857
 20
658.039568
 30
111.76257
 70
    64
  0
VERTEX
  8
I-STEEL
  5
B15
 10
534.98018
 20
660.539568
 30
117.830197
 70
    64
  0
VERTEX
  8
I-STEEL
  5
B16
 10
540.478483
 20
655.539568
 30
102.376466
 70
    64
  0
VERTEX
  8
I-STEEL
  5
B17
 10
534.410855
 20
658.039568
 30
106.784855
 70
    64
  0
VERTEX
  8
I-STEEL
  5
B18
 10
528.343228
 20
660.539568
 30
111.193245
 70
    64
  0
VERTEX
  8
I-STEEL
  5
B19
 10
538.34789
 20
655.539568
 30
98.194942
 70
    64
  0
VERTEX
  8
I-STEEL
  5
B1A
 10
531.214966
 20
658.039568
 30
100.51257
 70
    64
  0
VERTEX
  8
I-STEEL
  5
B1B
 10
524.082042
 20
660.539568
 30
102.830197
 70
    64
  0
VERTEX
  8
I-STEEL
  5
B1C
 10
537.613738
 20
655.539568
 30
93.559687
 70
    64
  0
VERTEX
  8
I-STEEL
  5
B1D
 10
530.113738
 20
658.039568
 30
93.559687
 70
    64
  0
VERTEX
  8
I-STEEL
  5
B1E
 10
522.613738
 20
660.539568
 30
93.559687
 70
    64
  0
VERTEX
  8
I-STEEL
  5
B1F
 10
538.34789
 20
655.539568
 30
88.924432
 70
    64
  0
VERTEX
  8
I-STEEL
  5
B20
 10
531.214966
 20
658.039568
 30
86.606805
 70
    64
  0
VERTEX
  8
I-STEEL
  5
B21
 10
524.082042
 20
660.539568
 30
84.289177
 70
    64
  0
VERTEX
  8
I-STEEL
  5
B22
 10
540.478483
 20
655.539568
 30
84.742908
 70
    64
  0
VERTEX
  8
I-STEEL
  5
B23
 10
534.410855
 20
658.039568
 30
80.334519
 70
    64
  0
VERTEX
  8
I-STEEL
  5
B24
 10
528.343228
 20
660.539568
 30
75.92613
 70
    64
  0
VERTEX
  8
I-STEEL
  5
B25
 10
543.796959
 20
655.539568
 30
81.424432
 70
    64
  0
VERTEX
  8
I-STEEL
  5
B26
 10
539.38857
 20
658.039568
 30
75.356805
 70
    64
  0
VERTEX
  8
I-STEEL
  5
B27
 10
534.98018
 20
660.539568
 30
69.289177
 70
    64
  0
VERTEX
  8
I-STEEL
  5
B28
 10
547.978483
 20
655.539568
 30
79.29384
 70
    64
  0
VERTEX
  8
I-STEEL
  5
B29
 10
545.660855
 20
658.039568
 30
72.160916
 70
    64
  0
VERTEX
  8
I-STEEL
  5
B2A
 10
543.343228
 20
660.539568
 30
65.027992
 70
    64
  0
VERTEX
  8
I-STEEL
  5
B2B
 10
552.613738
 20
655.539568
 30
78.559687
 70
    64
  0
VERTEX
  8
I-STEEL
  5
B2C
 10
552.613738
 20
658.039568
 30
71.059687
 70
    64
  0
VERTEX
  8
I-STEEL
  5
B2D
 10
552.613738
 20
660.539568
 30
63.559687
 70
    64
  0
VERTEX
  8
I-STEEL
  5
B2E
 10
557.248993
 20
655.539568
 30
79.29384
 70
    64
  0
VERTEX
  8
I-STEEL
  5
B2F
 10
559.56662
 20
658.039568
 30
72.160916
 70
    64
  0
VERTEX
  8
I-STEEL
  5
B30
 10
561.884248
 20
660.539568
 30
65.027992
 70
    64
  0
VERTEX
  8
I-STEEL
  5
B31
 10
561.430517
 20
655.539568
 30
81.424432
 70
    64
  0
VERTEX
  8
I-STEEL
  5
B32
 10
565.838906
 20
658.039568
 30
75.356805
 70
    64
  0
VERTEX
  8
I-STEEL
  5
B33
 10
570.247295
 20
660.539568
 30
69.289177
 70
    64
  0
VERTEX
  8
I-STEEL
  5
B34
 10
564.748993
 20
655.539568
 30
84.742908
 70
    64
  0
VERTEX
  8
I-STEEL
  5
B35
 10
570.81662
 20
658.039568
 30
80.334519
 70
    64
  0
VERTEX
  8
I-STEEL
  5
B36
 10
576.884248
 20
660.539568
 30
75.92613
 70
    64
  0
VERTEX
  8
I-STEEL
  5
B37
 10
566.879586
 20
655.539568
 30
88.924432
 70
    64
  0
VERTEX
  8
I-STEEL
  5
B38
 10
574.012509
 20
658.039568
 30
86.606805
 70
    64
  0
VERTEX
  8
I-STEEL
  5
B39
 10
581.145433
 20
660.539568
 30
84.289177
 70
    64
  0
VERTEX
  8
I-STEEL
  5
B3A
 10
567.613738
 20
655.539568
 30
93.559687
 70
    64
  0
VERTEX
  8
I-STEEL
  5
B3B
 10
575.113738
 20
658.039568
 30
93.559687
 70
    64
  0
VERTEX
  8
I-STEEL
  5
B3C
 10
582.613738
 20
660.539568
 30
93.559687
 70
    64
  0
VERTEX
  8
I-STEEL
  5
B3D
 10
566.879586
 20
655.539568
 30
98.194942
 70
    64
  0
VERTEX
  8
I-STEEL
  5
B3E
 10
574.012509
 20
658.039568
 30
100.51257
 70
    64
  0
VERTEX
  8
I-STEEL
  5
B3F
 10
581.145433
 20
660.539568
 30
102.830197
 70
    64
  0
VERTEX
  8
I-STEEL
  5
B40
 10
564.748993
 20
655.539568
 30
102.376466
 70
    64
  0
VERTEX
  8
I-STEEL
  5
B41
 10
570.81662
 20
658.039568
 30
106.784855
 70
    64
  0
VERTEX
  8
I-STEEL
  5
B42
 10
576.884248
 20
660.539568
 30
111.193245
 70
    64
  0
VERTEX
  8
I-STEEL
  5
B43
 10
561.430517
 20
655.539568
 30
105.694942
 70
    64
  0
VERTEX
  8
I-STEEL
  5
B44
 10
565.838906
 20
658.039568
 30
111.76257
 70
    64
  0
VERTEX
  8
I-STEEL
  5
B45
 10
570.247295
 20
660.539568
 30
117.830197
 70
    64
  0
VERTEX
  8
I-STEEL
  5
B46
 10
557.248993
 20
655.539568
 30
107.825535
 70
    64
  0
VERTEX
  8
I-STEEL
  5
B47
 10
559.56662
 20
658.039568
 30
114.958459
 70
    64
  0
VERTEX
  8
I-STEEL
  5
B48
 10
561.884248
 20
660.539568
 30
122.091383
 70
    64
  0
SEQEND
  8
I-STEEL
  5
B49
  0
POLYLINE
  8
I-STEEL
  5
B4A
 66
     1
 10
0.0
 20
0.0
 30
0.0
 70
    17
 71
    20
 72
     3
  0
VERTEX
  8
I-STEEL
  5
B4B
 10
552.613738
 20
665.539568
 30
123.559687
 70
    64
  0
VERTEX
  8
I-STEEL
  5
B4C
 10
552.613738
 20
663.039568
 30
123.559687
 70
    64
  0
VERTEX
  8
I-STEEL
  5
B4D
 10
552.613738
 20
660.539568
 30
123.559687
 70
    64
  0
VERTEX
  8
I-STEEL
  5
B4E
 10
543.343228
 20
665.539568
 30
122.091383
 70
    64
  0
VERTEX
  8
I-STEEL
  5
B4F
 10
543.343228
 20
663.039568
 30
122.091383
 70
    64
  0
VERTEX
  8
I-STEEL
  5
B50
 10
543.343228
 20
660.539568
 30
122.091383
 70
    64
  0
VERTEX
  8
I-STEEL
  5
B51
 10
534.98018
 20
665.539568
 30
117.830197
 70
    64
  0
VERTEX
  8
I-STEEL
  5
B52
 10
534.98018
 20
663.039568
 30
117.830197
 70
    64
  0
VERTEX
  8
I-STEEL
  5
B53
 10
534.98018
 20
660.539568
 30
117.830197
 70
    64
  0
VERTEX
  8
I-STEEL
  5
B54
 10
528.343228
 20
665.539568
 30
111.193245
 70
    64
  0
VERTEX
  8
I-STEEL
  5
B55
 10
528.343228
 20
663.039568
 30
111.193245
 70
    64
  0
VERTEX
  8
I-STEEL
  5
B56
 10
528.343228
 20
660.539568
 30
111.193245
 70
    64
  0
VERTEX
  8
I-STEEL
  5
B57
 10
524.082042
 20
665.539568
 30
102.830197
 70
    64
  0
VERTEX
  8
I-STEEL
  5
B58
 10
524.082042
 20
663.039568
 30
102.830197
 70
    64
  0
VERTEX
  8
I-STEEL
  5
B59
 10
524.082042
 20
660.539568
 30
102.830197
 70
    64
  0
VERTEX
  8
I-STEEL
  5
B5A
 10
522.613738
 20
665.539568
 30
93.559687
 70
    64
  0
VERTEX
  8
I-STEEL
  5
B5B
 10
522.613738
 20
663.039568
 30
93.559687
 70
    64
  0
VERTEX
  8
I-STEEL
  5
B5C
 10
522.613738
 20
660.539568
 30
93.559687
 70
    64
  0
VERTEX
  8
I-STEEL
  5
B5D
 10
524.082042
 20
665.539568
 30
84.289177
 70
    64
  0
VERTEX
  8
I-STEEL
  5
B5E
 10
524.082042
 20
663.039568
 30
84.289177
 70
    64
  0
VERTEX
  8
I-STEEL
  5
B5F
 10
524.082042
 20
660.539568
 30
84.289177
 70
    64
  0
VERTEX
  8
I-STEEL
  5
B60
 10
528.343228
 20
665.539568
 30
75.92613
 70
    64
  0
VERTEX
  8
I-STEEL
  5
B61
 10
528.343228
 20
663.039568
 30
75.92613
 70
    64
  0
VERTEX
  8
I-STEEL
  5
B62
 10
528.343228
 20
660.539568
 30
75.92613
 70
    64
  0
VERTEX
  8
I-STEEL
  5
B63
 10
534.98018
 20
665.539568
 30
69.289177
 70
    64
  0
VERTEX
  8
I-STEEL
  5
B64
 10
534.98018
 20
663.039568
 30
69.289177
 70
    64
  0
VERTEX
  8
I-STEEL
  5
B65
 10
534.98018
 20
660.539568
 30
69.289177
 70
    64
  0
VERTEX
  8
I-STEEL
  5
B66
 10
543.343228
 20
665.539568
 30
65.027992
 70
    64
  0
VERTEX
  8
I-STEEL
  5
B67
 10
543.343228
 20
663.039568
 30
65.027992
 70
    64
  0
VERTEX
  8
I-STEEL
  5
B68
 10
543.343228
 20
660.539568
 30
65.027992
 70
    64
  0
VERTEX
  8
I-STEEL
  5
B69
 10
552.613738
 20
665.539568
 30
63.559687
 70
    64
  0
VERTEX
  8
I-STEEL
  5
B6A
 10
552.613738
 20
663.039568
 30
63.559687
 70
    64
  0
VERTEX
  8
I-STEEL
  5
B6B
 10
552.613738
 20
660.539568
 30
63.559687
 70
    64
  0
VERTEX
  8
I-STEEL
  5
B6C
 10
561.884248
 20
665.539568
 30
65.027992
 70
    64
  0
VERTEX
  8
I-STEEL
  5
B6D
 10
561.884248
 20
663.039568
 30
65.027992
 70
    64
  0
VERTEX
  8
I-STEEL
  5
B6E
 10
561.884248
 20
660.539568
 30
65.027992
 70
    64
  0
VERTEX
  8
I-STEEL
  5
B6F
 10
570.247295
 20
665.539568
 30
69.289177
 70
    64
  0
VERTEX
  8
I-STEEL
  5
B70
 10
570.247295
 20
663.039568
 30
69.289177
 70
    64
  0
VERTEX
  8
I-STEEL
  5
B71
 10
570.247295
 20
660.539568
 30
69.289177
 70
    64
  0
VERTEX
  8
I-STEEL
  5
B72
 10
576.884248
 20
665.539568
 30
75.92613
 70
    64
  0
VERTEX
  8
I-STEEL
  5
B73
 10
576.884248
 20
663.039568
 30
75.92613
 70
    64
  0
VERTEX
  8
I-STEEL
  5
B74
 10
576.884248
 20
660.539568
 30
75.92613
 70
    64
  0
VERTEX
  8
I-STEEL
  5
B75
 10
581.145433
 20
665.539568
 30
84.289177
 70
    64
  0
VERTEX
  8
I-STEEL
  5
B76
 10
581.145433
 20
663.039568
 30
84.289177
 70
    64
  0
VERTEX
  8
I-STEEL
  5
B77
 10
581.145433
 20
660.539568
 30
84.289177
 70
    64
  0
VERTEX
  8
I-STEEL
  5
B78
 10
582.613738
 20
665.539568
 30
93.559687
 70
    64
  0
VERTEX
  8
I-STEEL
  5
B79
 10
582.613738
 20
663.039568
 30
93.559687
 70
    64
  0
VERTEX
  8
I-STEEL
  5
B7A
 10
582.613738
 20
660.539568
 30
93.559687
 70
    64
  0
VERTEX
  8
I-STEEL
  5
B7B
 10
581.145433
 20
665.539568
 30
102.830197
 70
    64
  0
VERTEX
  8
I-STEEL
  5
B7C
 10
581.145433
 20
663.039568
 30
102.830197
 70
    64
  0
VERTEX
  8
I-STEEL
  5
B7D
 10
581.145433
 20
660.539568
 30
102.830197
 70
    64
  0
VERTEX
  8
I-STEEL
  5
B7E
 10
576.884248
 20
665.539568
 30
111.193245
 70
    64
  0
VERTEX
  8
I-STEEL
  5
B7F
 10
576.884248
 20
663.039568
 30
111.193245
 70
    64
  0
VERTEX
  8
I-STEEL
  5
B80
 10
576.884248
 20
660.539568
 30
111.193245
 70
    64
  0
VERTEX
  8
I-STEEL
  5
B81
 10
570.247295
 20
665.539568
 30
117.830197
 70
    64
  0
VERTEX
  8
I-STEEL
  5
B82
 10
570.247295
 20
663.039568
 30
117.830197
 70
    64
  0
VERTEX
  8
I-STEEL
  5
B83
 10
570.247295
 20
660.539568
 30
117.830197
 70
    64
  0
VERTEX
  8
I-STEEL
  5
B84
 10
561.884248
 20
665.539568
 30
122.091383
 70
    64
  0
VERTEX
  8
I-STEEL
  5
B85
 10
561.884248
 20
663.039568
 30
122.091383
 70
    64
  0
VERTEX
  8
I-STEEL
  5
B86
 10
561.884248
 20
660.539568
 30
122.091383
 70
    64
  0
SEQEND
  8
I-STEEL
  5
B87
  0
POLYLINE
  8
I-STEEL
  5
BD7
 66
     1
 10
0.0
 20
0.0
 30
0.0
 70
    16
 71
     2
 72
     9
  0
VERTEX
  8
I-STEEL
  5
BD8
 10
472.613738
 20
645.539568
 30
93.559687
 70
    64
  0
VERTEX
  8
I-STEEL
  5
BD9
 10
472.613738
 20
645.158966
 30
95.473104
 70
    64
  0
VERTEX
  8
I-STEEL
  5
BDA
 10
472.613738
 20
644.075102
 30
97.095221
 70
    64
  0
VERTEX
  8
I-STEEL
  5
BDB
 10
472.613738
 20
642.452985
 30
98.179085
 70
    64
  0
VERTEX
  8
I-STEEL
  5
BDC
 10
472.613738
 20
640.539568
 30
98.559687
 70
    64
  0
VERTEX
  8
I-STEEL
  5
BDD
 10
472.613738
 20
638.626151
 30
98.179085
 70
    64
  0
VERTEX
  8
I-STEEL
  5
BDE
 10
472.613738
 20
637.004034
 30
97.095221
 70
    64
  0
VERTEX
  8
I-STEEL
  5
BDF
 10
472.613738
 20
635.92017
 30
95.473104
 70
    64
  0
VERTEX
  8
I-STEEL
  5
BE0
 10
472.613738
 20
635.539568
 30
93.559687
 70
    64
  0
VERTEX
  8
I-STEEL
  5
BE1
 10
472.613738
 20
645.539568
 30
93.559687
 70
    64
  0
VERTEX
  8
I-STEEL
  5
BE2
 10
472.613738
 20
644.289568
 30
93.559687
 70
    64
  0
VERTEX
  8
I-STEEL
  5
BE3
 10
472.613738
 20
643.039568
 30
93.559687
 70
    64
  0
VERTEX
  8
I-STEEL
  5
BE4
 10
472.613738
 20
641.789568
 30
93.559687
 70
    64
  0
VERTEX
  8
I-STEEL
  5
BE5
 10
472.613738
 20
640.539568
 30
93.559687
 70
    64
  0
VERTEX
  8
I-STEEL
  5
BE6
 10
472.613738
 20
639.289568
 30
93.559687
 70
    64
  0
VERTEX
  8
I-STEEL
  5
BE7
 10
472.613738
 20
638.039568
 30
93.559687
 70
    64
  0
VERTEX
  8
I-STEEL
  5
BE8
 10
472.613738
 20
636.789568
 30
93.559687
 70
    64
  0
VERTEX
  8
I-STEEL
  5
BE9
 10
472.613738
 20
635.539568
 30
93.559687
 70
    64
  0
SEQEND
  8
I-STEEL
  5
BEA
  0
POLYLINE
  8
I-STEEL
  5
BEB
 66
     1
 10
0.0
 20
0.0
 30
0.0
 70
    16
 71
     2
 72
     9
  0
VERTEX
  8
I-STEEL
  5
BEC
 10
572.613738
 20
645.539568
 30
93.559687
 70
    64
  0
VERTEX
  8
I-STEEL
  5
BED
 10
572.613738
 20
645.158966
 30
95.473104
 70
    64
  0
VERTEX
  8
I-STEEL
  5
BEE
 10
572.613738
 20
644.075102
 30
97.095221
 70
    64
  0
VERTEX
  8
I-STEEL
  5
BEF
 10
572.613738
 20
642.452985
 30
98.179085
 70
    64
  0
VERTEX
  8
I-STEEL
  5
BF0
 10
572.613738
 20
640.539568
 30
98.559687
 70
    64
  0
VERTEX
  8
I-STEEL
  5
BF1
 10
572.613738
 20
638.626151
 30
98.179085
 70
    64
  0
VERTEX
  8
I-STEEL
  5
BF2
 10
572.613738
 20
637.004034
 30
97.095221
 70
    64
  0
VERTEX
  8
I-STEEL
  5
BF3
 10
572.613738
 20
635.92017
 30
95.473104
 70
    64
  0
VERTEX
  8
I-STEEL
  5
BF4
 10
572.613738
 20
635.539568
 30
93.559687
 70
    64
  0
VERTEX
  8
I-STEEL
  5
BF5
 10
572.613738
 20
645.539568
 30
93.559687
 70
    64
  0
VERTEX
  8
I-STEEL
  5
BF6
 10
572.613738
 20
644.289568
 30
93.559687
 70
    64
  0
VERTEX
  8
I-STEEL
  5
BF7
 10
572.613738
 20
643.039568
 30
93.559687
 70
    64
  0
VERTEX
  8
I-STEEL
  5
BF8
 10
572.613738
 20
641.789568
 30
93.559687
 70
    64
  0
VERTEX
  8
I-STEEL
  5
BF9
 10
572.613738
 20
640.539568
 30
93.559687
 70
    64
  0
VERTEX
  8
I-STEEL
  5
BFA
 10
572.613738
 20
639.289568
 30
93.559687
 70
    64
  0
VERTEX
  8
I-STEEL
  5
BFB
 10
572.613738
 20
638.039568
 30
93.559687
 70
    64
  0
VERTEX
  8
I-STEEL
  5
BFC
 10
572.613738
 20
636.789568
 30
93.559687
 70
    64
  0
VERTEX
  8
I-STEEL
  5
BFD
 10
572.613738
 20
635.539568
 30
93.559687
 70
    64
  0
SEQEND
  8
I-STEEL
  5
BFE
  0
POLYLINE
  8
I-STEEL
  5
BFF
 66
     1
 10
0.0
 20
0.0
 30
0.0
 70
    16
 71
     2
 72
     9
  0
VERTEX
  8
I-STEEL
  5
C00
 10
472.613738
 20
635.539568
 30
93.559687
 70
    64
  0
VERTEX
  8
I-STEEL
  5
C01
 10
472.613738
 20
635.92017
 30
95.473104
 70
    64
  0
VERTEX
  8
I-STEEL
  5
C02
 10
472.613738
 20
637.004034
 30
97.095221
 70
    64
  0
VERTEX
  8
I-STEEL
  5
C03
 10
472.613738
 20
638.626151
 30
98.179085
 70
    64
  0
VERTEX
  8
I-STEEL
  5
C04
 10
472.613738
 20
640.539568
 30
98.559687
 70
    64
  0
VERTEX
  8
I-STEEL
  5
C05
 10
472.613738
 20
642.452985
 30
98.179085
 70
    64
  0
VERTEX
  8
I-STEEL
  5
C06
 10
472.613738
 20
644.075102
 30
97.095221
 70
    64
  0
VERTEX
  8
I-STEEL
  5
C07
 10
472.613738
 20
645.158966
 30
95.473104
 70
    64
  0
VERTEX
  8
I-STEEL
  5
C08
 10
472.613738
 20
645.539568
 30
93.559687
 70
    64
  0
VERTEX
  8
I-STEEL
  5
C09
 10
572.613738
 20
635.539568
 30
93.559687
 70
    64
  0
VERTEX
  8
I-STEEL
  5
C0A
 10
572.613738
 20
635.92017
 30
95.473104
 70
    64
  0
VERTEX
  8
I-STEEL
  5
C0B
 10
572.613738
 20
637.004034
 30
97.095221
 70
    64
  0
VERTEX
  8
I-STEEL
  5
C0C
 10
572.613738
 20
638.626151
 30
98.179085
 70
    64
  0
VERTEX
  8
I-STEEL
  5
C0D
 10
572.613738
 20
640.539568
 30
98.559687
 70
    64
  0
VERTEX
  8
I-STEEL
  5
C0E
 10
572.613738
 20
642.452985
 30
98.179085
 70
    64
  0
VERTEX
  8
I-STEEL
  5
C0F
 10
572.613738
 20
644.075102
 30
97.095221
 70
    64
  0
VERTEX
  8
I-STEEL
  5
C10
 10
572.613738
 20
645.158966
 30
95.473104
 70
    64
  0
VERTEX
  8
I-STEEL
  5
C11
 10
572.613738
 20
645.539568
 30
93.559687
 70
    64
  0
SEQEND
  8
I-STEEL
  5
C12
  0
POLYLINE
  8
I-STEEL
  5
C13
 66
     1
 10
0.0
 20
0.0
 30
0.0
 70
    16
 71
     2
 72
     9
  0
VERTEX
  8
I-STEEL
  5
C14
 10
572.613738
 20
645.539568
 30
93.559687
 70
    64
  0
VERTEX
  8
I-STEEL
  5
C15
 10
572.613738
 20
645.158966
 30
91.64627
 70
    64
  0
VERTEX
  8
I-STEEL
  5
C16
 10
572.613738
 20
644.075102
 30
90.024153
 70
    64
  0
VERTEX
  8
I-STEEL
  5
C17
 10
572.613738
 20
642.452985
 30
88.94029
 70
    64
  0
VERTEX
  8
I-STEEL
  5
C18
 10
572.613738
 20
640.539568
 30
88.559687
 70
    64
  0
VERTEX
  8
I-STEEL
  5
C19
 10
572.613738
 20
638.626151
 30
88.94029
 70
    64
  0
VERTEX
  8
I-STEEL
  5
C1A
 10
572.613738
 20
637.004034
 30
90.024153
 70
    64
  0
VERTEX
  8
I-STEEL
  5
C1B
 10
572.613738
 20
635.92017
 30
91.64627
 70
    64
  0
VERTEX
  8
I-STEEL
  5
C1C
 10
572.613738
 20
635.539568
 30
93.559687
 70
    64
  0
VERTEX
  8
I-STEEL
  5
C1D
 10
572.613738
 20
645.539568
 30
93.559687
 70
    64
  0
VERTEX
  8
I-STEEL
  5
C1E
 10
572.613738
 20
644.289568
 30
93.559687
 70
    64
  0
VERTEX
  8
I-STEEL
  5
C1F
 10
572.613738
 20
643.039568
 30
93.559687
 70
    64
  0
VERTEX
  8
I-STEEL
  5
C20
 10
572.613738
 20
641.789568
 30
93.559687
 70
    64
  0
VERTEX
  8
I-STEEL
  5
C21
 10
572.613738
 20
640.539568
 30
93.559687
 70
    64
  0
VERTEX
  8
I-STEEL
  5
C22
 10
572.613738
 20
639.289568
 30
93.559687
 70
    64
  0
VERTEX
  8
I-STEEL
  5
C23
 10
572.613738
 20
638.039568
 30
93.559687
 70
    64
  0
VERTEX
  8
I-STEEL
  5
C24
 10
572.613738
 20
636.789568
 30
93.559687
 70
    64
  0
VERTEX
  8
I-STEEL
  5
C25
 10
572.613738
 20
635.539568
 30
93.559687
 70
    64
  0
SEQEND
  8
I-STEEL
  5
C26
  0
POLYLINE
  8
I-STEEL
  5
C27
 66
     1
 10
0.0
 20
0.0
 30
0.0
 70
    16
 71
     2
 72
     9
  0
VERTEX
  8
I-STEEL
  5
C28
 10
472.613738
 20
645.539568
 30
93.559687
 70
    64
  0
VERTEX
  8
I-STEEL
  5
C29
 10
472.613738
 20
645.158966
 30
91.64627
 70
    64
  0
VERTEX
  8
I-STEEL
  5
C2A
 10
472.613738
 20
644.075102
 30
90.024153
 70
    64
  0
VERTEX
  8
I-STEEL
  5
C2B
 10
472.613738
 20
642.452985
 30
88.94029
 70
    64
  0
VERTEX
  8
I-STEEL
  5
C2C
 10
472.613738
 20
640.539568
 30
88.559687
 70
    64
  0
VERTEX
  8
I-STEEL
  5
C2D
 10
472.613738
 20
638.626151
 30
88.94029
 70
    64
  0
VERTEX
  8
I-STEEL
  5
C2E
 10
472.613738
 20
637.004034
 30
90.024153
 70
    64
  0
VERTEX
  8
I-STEEL
  5
C2F
 10
472.613738
 20
635.92017
 30
91.64627
 70
    64
  0
VERTEX
  8
I-STEEL
  5
C30
 10
472.613738
 20
635.539568
 30
93.559687
 70
    64
  0
VERTEX
  8
I-STEEL
  5
C31
 10
472.613738
 20
645.539568
 30
93.559687
 70
    64
  0
VERTEX
  8
I-STEEL
  5
C32
 10
472.613738
 20
644.289568
 30
93.559687
 70
    64
  0
VERTEX
  8
I-STEEL
  5
C33
 10
472.613738
 20
643.039568
 30
93.559687
 70
    64
  0
VERTEX
  8
I-STEEL
  5
C34
 10
472.613738
 20
641.789568
 30
93.559687
 70
    64
  0
VERTEX
  8
I-STEEL
  5
C35
 10
472.613738
 20
640.539568
 30
93.559687
 70
    64
  0
VERTEX
  8
I-STEEL
  5
C36
 10
472.613738
 20
639.289568
 30
93.559687
 70
    64
  0
VERTEX
  8
I-STEEL
  5
C37
 10
472.613738
 20
638.039568
 30
93.559687
 70
    64
  0
VERTEX
  8
I-STEEL
  5
C38
 10
472.613738
 20
636.789568
 30
93.559687
 70
    64
  0
VERTEX
  8
I-STEEL
  5
C39
 10
472.613738
 20
635.539568
 30
93.559687
 70
    64
  0
SEQEND
  8
I-STEEL
  5
C3A
  0
POLYLINE
  8
I-STEEL
  5
C3B
 66
     1
 10
0.0
 20
0.0
 30
0.0
 70
    16
 71
     2
 72
     9
  0
VERTEX
  8
I-STEEL
  5
C3C
 10
472.613738
 20
635.539568
 30
93.559687
 70
    64
  0
VERTEX
  8
I-STEEL
  5
C3D
 10
472.613738
 20
635.92017
 30
91.64627
 70
    64
  0
VERTEX
  8
I-STEEL
  5
C3E
 10
472.613738
 20
637.004034
 30
90.024153
 70
    64
  0
VERTEX
  8
I-STEEL
  5
C3F
 10
472.613738
 20
638.626151
 30
88.94029
 70
    64
  0
VERTEX
  8
I-STEEL
  5
C40
 10
472.613738
 20
640.539568
 30
88.559687
 70
    64
  0
VERTEX
  8
I-STEEL
  5
C41
 10
472.613738
 20
642.452985
 30
88.94029
 70
    64
  0
VERTEX
  8
I-STEEL
  5
C42
 10
472.613738
 20
644.075102
 30
90.024153
 70
    64
  0
VERTEX
  8
I-STEEL
  5
C43
 10
472.613738
 20
645.158966
 30
91.64627
 70
    64
  0
VERTEX
  8
I-STEEL
  5
C44
 10
472.613738
 20
645.539568
 30
93.559687
 70
    64
  0
VERTEX
  8
I-STEEL
  5
C45
 10
572.613738
 20
635.539568
 30
93.559687
 70
    64
  0
VERTEX
  8
I-STEEL
  5
C46
 10
572.613738
 20
635.92017
 30
91.64627
 70
    64
  0
VERTEX
  8
I-STEEL
  5
C47
 10
572.613738
 20
637.004034
 30
90.024153
 70
    64
  0
VERTEX
  8
I-STEEL
  5
C48
 10
572.613738
 20
638.626151
 30
88.94029
 70
    64
  0
VERTEX
  8
I-STEEL
  5
C49
 10
572.613738
 20
640.539568
 30
88.559687
 70
    64
  0
VERTEX
  8
I-STEEL
  5
C4A
 10
572.613738
 20
642.452985
 30
88.94029
 70
    64
  0
VERTEX
  8
I-STEEL
  5
C4B
 10
572.613738
 20
644.075102
 30
90.024153
 70
    64
  0
VERTEX
  8
I-STEEL
  5
C4C
 10
572.613738
 20
645.158966
 30
91.64627
 70
    64
  0
VERTEX
  8
I-STEEL
  5
C4D
 10
572.613738
 20
645.539568
 30
93.559687
 70
    64
  0
SEQEND
  8
I-STEEL
  5
C4E
  0
POLYLINE
  8
I-STEEL
  5
C4F
 66
     1
 10
0.0
 20
0.0
 30
0.0
 70
    17
 71
    20
 72
     3
  0
VERTEX
  8
I-STEEL
  5
C50
 10
552.613738
 20
630.539568
 30
93.559687
 70
    64
  0
VERTEX
  8
I-STEEL
  5
C51
 10
552.613738
 20
630.539568
 30
99.559687
 70
    64
  0
VERTEX
  8
I-STEEL
  5
C52
 10
552.613738
 20
630.539568
 30
105.559687
 70
    64
  0
VERTEX
  8
I-STEEL
  5
C53
 10
552.613738
 20
630.539568
 30
93.559687
 70
    64
  0
VERTEX
  8
I-STEEL
  5
C54
 10
550.759636
 20
630.539568
 30
99.266026
 70
    64
  0
VERTEX
  8
I-STEEL
  5
C55
 10
548.905534
 20
630.539568
 30
104.972365
 70
    64
  0
VERTEX
  8
I-STEEL
  5
C56
 10
552.613738
 20
630.539568
 30
93.559687
 70
    64
  0
VERTEX
  8
I-STEEL
  5
C57
 10
549.087026
 20
630.539568
 30
98.413789
 70
    64
  0
VERTEX
  8
I-STEEL
  5
C58
 10
545.560315
 20
630.539568
 30
103.267891
 70
    64
  0
VERTEX
  8
I-STEEL
  5
C59
 10
552.613738
 20
630.539568
 30
93.559687
 70
    64
  0
VERTEX
  8
I-STEEL
  5
C5A
 10
547.759636
 20
630.539568
 30
97.086399
 70
    64
  0
VERTEX
  8
I-STEEL
  5
C5B
 10
542.905534
 20
630.539568
 30
100.61311
 70
    64
  0
VERTEX
  8
I-STEEL
  5
C5C
 10
552.613738
 20
630.539568
 30
93.559687
 70
    64
  0
VERTEX
  8
I-STEEL
  5
C5D
 10
546.907399
 20
630.539568
 30
95.413789
 70
    64
  0
VERTEX
  8
I-STEEL
  5
C5E
 10
541.20106
 20
630.539568
 30
97.267891
 70
    64
  0
VERTEX
  8
I-STEEL
  5
C5F
 10
552.613738
 20
630.539568
 30
93.559687
 70
    64
  0
VERTEX
  8
I-STEEL
  5
C60
 10
546.613738
 20
630.539568
 30
93.559687
 70
    64
  0
VERTEX
  8
I-STEEL
  5
C61
 10
540.613738
 20
630.539568
 30
93.559687
 70
    64
  0
VERTEX
  8
I-STEEL
  5
C62
 10
552.613738
 20
630.539568
 30
93.559687
 70
    64
  0
VERTEX
  8
I-STEEL
  5
C63
 10
546.907399
 20
630.539568
 30
91.705585
 70
    64
  0
VERTEX
  8
I-STEEL
  5
C64
 10
541.20106
 20
630.539568
 30
89.851483
 70
    64
  0
VERTEX
  8
I-STEEL
  5
C65
 10
552.613738
 20
630.539568
 30
93.559687
 70
    64
  0
VERTEX
  8
I-STEEL
  5
C66
 10
547.759636
 20
630.539568
 30
90.032976
 70
    64
  0
VERTEX
  8
I-STEEL
  5
C67
 10
542.905534
 20
630.539568
 30
86.506264
 70
    64
  0
VERTEX
  8
I-STEEL
  5
C68
 10
552.613738
 20
630.539568
 30
93.559687
 70
    64
  0
VERTEX
  8
I-STEEL
  5
C69
 10
549.087026
 20
630.539568
 30
88.705585
 70
    64
  0
VERTEX
  8
I-STEEL
  5
C6A
 10
545.560315
 20
630.539568
 30
83.851483
 70
    64
  0
VERTEX
  8
I-STEEL
  5
C6B
 10
552.613738
 20
630.539568
 30
93.559687
 70
    64
  0
VERTEX
  8
I-STEEL
  5
C6C
 10
550.759636
 20
630.539568
 30
87.853348
 70
    64
  0
VERTEX
  8
I-STEEL
  5
C6D
 10
548.905534
 20
630.539568
 30
82.147009
 70
    64
  0
VERTEX
  8
I-STEEL
  5
C6E
 10
552.613738
 20
630.539568
 30
93.559687
 70
    64
  0
VERTEX
  8
I-STEEL
  5
C6F
 10
552.613738
 20
630.539568
 30
87.559687
 70
    64
  0
VERTEX
  8
I-STEEL
  5
C70
 10
552.613738
 20
630.539568
 30
81.559687
 70
    64
  0
VERTEX
  8
I-STEEL
  5
C71
 10
552.613738
 20
630.539568
 30
93.559687
 70
    64
  0
VERTEX
  8
I-STEEL
  5
C72
 10
554.46784
 20
630.539568
 30
87.853348
 70
    64
  0
VERTEX
  8
I-STEEL
  5
C73
 10
556.321942
 20
630.539568
 30
82.147009
 70
    64
  0
VERTEX
  8
I-STEEL
  5
C74
 10
552.613738
 20
630.539568
 30
93.559687
 70
    64
  0
VERTEX
  8
I-STEEL
  5
C75
 10
556.140449
 20
630.539568
 30
88.705585
 70
    64
  0
VERTEX
  8
I-STEEL
  5
C76
 10
559.667161
 20
630.539568
 30
83.851483
 70
    64
  0
VERTEX
  8
I-STEEL
  5
C77
 10
552.613738
 20
630.539568
 30
93.559687
 70
    64
  0
VERTEX
  8
I-STEEL
  5
C78
 10
557.46784
 20
630.539568
 30
90.032976
 70
    64
  0
VERTEX
  8
I-STEEL
  5
C79
 10
562.321942
 20
630.539568
 30
86.506264
 70
    64
  0
VERTEX
  8
I-STEEL
  5
C7A
 10
552.613738
 20
630.539568
 30
93.559687
 70
    64
  0
VERTEX
  8
I-STEEL
  5
C7B
 10
558.320077
 20
630.539568
 30
91.705585
 70
    64
  0
VERTEX
  8
I-STEEL
  5
C7C
 10
564.026416
 20
630.539568
 30
89.851483
 70
    64
  0
VERTEX
  8
I-STEEL
  5
C7D
 10
552.613738
 20
630.539568
 30
93.559687
 70
    64
  0
VERTEX
  8
I-STEEL
  5
C7E
 10
558.613738
 20
630.539568
 30
93.559687
 70
    64
  0
VERTEX
  8
I-STEEL
  5
C7F
 10
564.613738
 20
630.539568
 30
93.559687
 70
    64
  0
VERTEX
  8
I-STEEL
  5
C80
 10
552.613738
 20
630.539568
 30
93.559687
 70
    64
  0
VERTEX
  8
I-STEEL
  5
C81
 10
558.320077
 20
630.539568
 30
95.413789
 70
    64
  0
VERTEX
  8
I-STEEL
  5
C82
 10
564.026416
 20
630.539568
 30
97.267891
 70
    64
  0
VERTEX
  8
I-STEEL
  5
C83
 10
552.613738
 20
630.539568
 30
93.559687
 70
    64
  0
VERTEX
  8
I-STEEL
  5
C84
 10
557.46784
 20
630.539568
 30
97.086399
 70
    64
  0
VERTEX
  8
I-STEEL
  5
C85
 10
562.321942
 20
630.539568
 30
100.61311
 70
    64
  0
VERTEX
  8
I-STEEL
  5
C86
 10
552.613738
 20
630.539568
 30
93.559687
 70
    64
  0
VERTEX
  8
I-STEEL
  5
C87
 10
556.140449
 20
630.539568
 30
98.413789
 70
    64
  0
VERTEX
  8
I-STEEL
  5
C88
 10
559.667161
 20
630.539568
 30
103.267891
 70
    64
  0
VERTEX
  8
I-STEEL
  5
C89
 10
552.613738
 20
630.539568
 30
93.559687
 70
    64
  0
VERTEX
  8
I-STEEL
  5
C8A
 10
554.46784
 20
630.539568
 30
99.266026
 70
    64
  0
VERTEX
  8
I-STEEL
  5
C8B
 10
556.321942
 20
630.539568
 30
104.972365
 70
    64
  0
SEQEND
  8
I-STEEL
  5
C8C
  0
POLYLINE
  8
I-STEEL
  5
C8D
 66
     1
 10
0.0
 20
0.0
 30
0.0
 70
    17
 71
    20
 72
     3
  0
VERTEX
  8
I-STEEL
  5
C8E
 10
552.613738
 20
633.539568
 30
108.559687
 70
    64
  0
VERTEX
  8
I-STEEL
  5
C8F
 10
552.613738
 20
632.039568
 30
107.059687
 70
    64
  0
VERTEX
  8
I-STEEL
  5
C90
 10
552.613738
 20
630.539568
 30
105.559687
 70
    64
  0
VERTEX
  8
I-STEEL
  5
C91
 10
547.978483
 20
633.539568
 30
107.825535
 70
    64
  0
VERTEX
  8
I-STEEL
  5
C92
 10
548.442008
 20
632.039568
 30
106.39895
 70
    64
  0
VERTEX
  8
I-STEEL
  5
C93
 10
548.905534
 20
630.539568
 30
104.972365
 70
    64
  0
VERTEX
  8
I-STEEL
  5
C94
 10
543.796959
 20
633.539568
 30
105.694942
 70
    64
  0
VERTEX
  8
I-STEEL
  5
C95
 10
544.678637
 20
632.039568
 30
104.481417
 70
    64
  0
VERTEX
  8
I-STEEL
  5
C96
 10
545.560315
 20
630.539568
 30
103.267891
 70
    64
  0
VERTEX
  8
I-STEEL
  5
C97
 10
540.478483
 20
633.539568
 30
102.376466
 70
    64
  0
VERTEX
  8
I-STEEL
  5
C98
 10
541.692008
 20
632.039568
 30
101.494788
 70
    64
  0
VERTEX
  8
I-STEEL
  5
C99
 10
542.905534
 20
630.539568
 30
100.61311
 70
    64
  0
VERTEX
  8
I-STEEL
  5
C9A
 10
538.34789
 20
633.539568
 30
98.194942
 70
    64
  0
VERTEX
  8
I-STEEL
  5
C9B
 10
539.774475
 20
632.039568
 30
97.731417
 70
    64
  0
VERTEX
  8
I-STEEL
  5
C9C
 10
541.20106
 20
630.539568
 30
97.267891
 70
    64
  0
VERTEX
  8
I-STEEL
  5
C9D
 10
537.613738
 20
633.539568
 30
93.559687
 70
    64
  0
VERTEX
  8
I-STEEL
  5
C9E
 10
539.113738
 20
632.039568
 30
93.559687
 70
    64
  0
VERTEX
  8
I-STEEL
  5
C9F
 10
540.613738
 20
630.539568
 30
93.559687
 70
    64
  0
VERTEX
  8
I-STEEL
  5
CA0
 10
538.34789
 20
633.539568
 30
88.924432
 70
    64
  0
VERTEX
  8
I-STEEL
  5
CA1
 10
539.774475
 20
632.039568
 30
89.387958
 70
    64
  0
VERTEX
  8
I-STEEL
  5
CA2
 10
541.20106
 20
630.539568
 30
89.851483
 70
    64
  0
VERTEX
  8
I-STEEL
  5
CA3
 10
540.478483
 20
633.539568
 30
84.742908
 70
    64
  0
VERTEX
  8
I-STEEL
  5
CA4
 10
541.692008
 20
632.039568
 30
85.624586
 70
    64
  0
VERTEX
  8
I-STEEL
  5
CA5
 10
542.905534
 20
630.539568
 30
86.506264
 70
    64
  0
VERTEX
  8
I-STEEL
  5
CA6
 10
543.796959
 20
633.539568
 30
81.424432
 70
    64
  0
VERTEX
  8
I-STEEL
  5
CA7
 10
544.678637
 20
632.039568
 30
82.637958
 70
    64
  0
VERTEX
  8
I-STEEL
  5
CA8
 10
545.560315
 20
630.539568
 30
83.851483
 70
    64
  0
VERTEX
  8
I-STEEL
  5
CA9
 10
547.978483
 20
633.539568
 30
79.29384
 70
    64
  0
VERTEX
  8
I-STEEL
  5
CAA
 10
548.442008
 20
632.039568
 30
80.720424
 70
    64
  0
VERTEX
  8
I-STEEL
  5
CAB
 10
548.905534
 20
630.539568
 30
82.147009
 70
    64
  0
VERTEX
  8
I-STEEL
  5
CAC
 10
552.613738
 20
633.539568
 30
78.559687
 70
    64
  0
VERTEX
  8
I-STEEL
  5
CAD
 10
552.613738
 20
632.039568
 30
80.059687
 70
    64
  0
VERTEX
  8
I-STEEL
  5
CAE
 10
552.613738
 20
630.539568
 30
81.559687
 70
    64
  0
VERTEX
  8
I-STEEL
  5
CAF
 10
557.248993
 20
633.539568
 30
79.29384
 70
    64
  0
VERTEX
  8
I-STEEL
  5
CB0
 10
556.785467
 20
632.039568
 30
80.720424
 70
    64
  0
VERTEX
  8
I-STEEL
  5
CB1
 10
556.321942
 20
630.539568
 30
82.147009
 70
    64
  0
VERTEX
  8
I-STEEL
  5
CB2
 10
561.430517
 20
633.539568
 30
81.424432
 70
    64
  0
VERTEX
  8
I-STEEL
  5
CB3
 10
560.548839
 20
632.039568
 30
82.637958
 70
    64
  0
VERTEX
  8
I-STEEL
  5
CB4
 10
559.667161
 20
630.539568
 30
83.851483
 70
    64
  0
VERTEX
  8
I-STEEL
  5
CB5
 10
564.748993
 20
633.539568
 30
84.742908
 70
    64
  0
VERTEX
  8
I-STEEL
  5
CB6
 10
563.535467
 20
632.039568
 30
85.624586
 70
    64
  0
VERTEX
  8
I-STEEL
  5
CB7
 10
562.321942
 20
630.539568
 30
86.506264
 70
    64
  0
VERTEX
  8
I-STEEL
  5
CB8
 10
566.879586
 20
633.539568
 30
88.924432
 70
    64
  0
VERTEX
  8
I-STEEL
  5
CB9
 10
565.453001
 20
632.039568
 30
89.387958
 70
    64
  0
VERTEX
  8
I-STEEL
  5
CBA
 10
564.026416
 20
630.539568
 30
89.851483
 70
    64
  0
VERTEX
  8
I-STEEL
  5
CBB
 10
567.613738
 20
633.539568
 30
93.559687
 70
    64
  0
VERTEX
  8
I-STEEL
  5
CBC
 10
566.113738
 20
632.039568
 30
93.559687
 70
    64
  0
VERTEX
  8
I-STEEL
  5
CBD
 10
564.613738
 20
630.539568
 30
93.559687
 70
    64
  0
VERTEX
  8
I-STEEL
  5
CBE
 10
566.879586
 20
633.539568
 30
98.194942
 70
    64
  0
VERTEX
  8
I-STEEL
  5
CBF
 10
565.453001
 20
632.039568
 30
97.731417
 70
    64
  0
VERTEX
  8
I-STEEL
  5
CC0
 10
564.026416
 20
630.539568
 30
97.267891
 70
    64
  0
VERTEX
  8
I-STEEL
  5
CC1
 10
564.748993
 20
633.539568
 30
102.376466
 70
    64
  0
VERTEX
  8
I-STEEL
  5
CC2
 10
563.535467
 20
632.039568
 30
101.494788
 70
    64
  0
VERTEX
  8
I-STEEL
  5
CC3
 10
562.321942
 20
630.539568
 30
100.61311
 70
    64
  0
VERTEX
  8
I-STEEL
  5
CC4
 10
561.430517
 20
633.539568
 30
105.694942
 70
    64
  0
VERTEX
  8
I-STEEL
  5
CC5
 10
560.548839
 20
632.039568
 30
104.481417
 70
    64
  0
VERTEX
  8
I-STEEL
  5
CC6
 10
559.667161
 20
630.539568
 30
103.267891
 70
    64
  0
VERTEX
  8
I-STEEL
  5
CC7
 10
557.248993
 20
633.539568
 30
107.825535
 70
    64
  0
VERTEX
  8
I-STEEL
  5
CC8
 10
556.785467
 20
632.039568
 30
106.39895
 70
    64
  0
VERTEX
  8
I-STEEL
  5
CC9
 10
556.321942
 20
630.539568
 30
104.972365
 70
    64
  0
SEQEND
  8
I-STEEL
  5
CCA
  0
POLYLINE
  8
I-STEEL
  5
CCB
 66
     1
 10
0.0
 20
0.0
 30
0.0
 70
    17
 71
    20
 72
     3
  0
VERTEX
  8
I-STEEL
  5
CCC
 10
552.613738
 20
655.539568
 30
108.559687
 70
    64
  0
VERTEX
  8
I-STEEL
  5
CCD
 10
552.613738
 20
644.539568
 30
108.559687
 70
    64
  0
VERTEX
  8
I-STEEL
  5
CCE
 10
552.613738
 20
633.539568
 30
108.559687
 70
    64
  0
VERTEX
  8
I-STEEL
  5
CCF
 10
547.978483
 20
655.539568
 30
107.825535
 70
    64
  0
VERTEX
  8
I-STEEL
  5
CD0
 10
547.978483
 20
644.539568
 30
107.825535
 70
    64
  0
VERTEX
  8
I-STEEL
  5
CD1
 10
547.978483
 20
633.539568
 30
107.825535
 70
    64
  0
VERTEX
  8
I-STEEL
  5
CD2
 10
543.796959
 20
655.539568
 30
105.694942
 70
    64
  0
VERTEX
  8
I-STEEL
  5
CD3
 10
543.796959
 20
644.539568
 30
105.694942
 70
    64
  0
VERTEX
  8
I-STEEL
  5
CD4
 10
543.796959
 20
633.539568
 30
105.694942
 70
    64
  0
VERTEX
  8
I-STEEL
  5
CD5
 10
540.478483
 20
655.539568
 30
102.376466
 70
    64
  0
VERTEX
  8
I-STEEL
  5
CD6
 10
540.478483
 20
644.539568
 30
102.376466
 70
    64
  0
VERTEX
  8
I-STEEL
  5
CD7
 10
540.478483
 20
633.539568
 30
102.376466
 70
    64
  0
VERTEX
  8
I-STEEL
  5
CD8
 10
538.34789
 20
655.539568
 30
98.194942
 70
    64
  0
VERTEX
  8
I-STEEL
  5
CD9
 10
538.34789
 20
644.539568
 30
98.194942
 70
    64
  0
VERTEX
  8
I-STEEL
  5
CDA
 10
538.34789
 20
633.539568
 30
98.194942
 70
    64
  0
VERTEX
  8
I-STEEL
  5
CDB
 10
537.613738
 20
655.539568
 30
93.559687
 70
    64
  0
VERTEX
  8
I-STEEL
  5
CDC
 10
537.613738
 20
644.539568
 30
93.559687
 70
    64
  0
VERTEX
  8
I-STEEL
  5
CDD
 10
537.613738
 20
633.539568
 30
93.559687
 70
    64
  0
VERTEX
  8
I-STEEL
  5
CDE
 10
538.34789
 20
655.539568
 30
88.924432
 70
    64
  0
VERTEX
  8
I-STEEL
  5
CDF
 10
538.34789
 20
644.539568
 30
88.924432
 70
    64
  0
VERTEX
  8
I-STEEL
  5
CE0
 10
538.34789
 20
633.539568
 30
88.924432
 70
    64
  0
VERTEX
  8
I-STEEL
  5
CE1
 10
540.478483
 20
655.539568
 30
84.742908
 70
    64
  0
VERTEX
  8
I-STEEL
  5
CE2
 10
540.478483
 20
644.539568
 30
84.742908
 70
    64
  0
VERTEX
  8
I-STEEL
  5
CE3
 10
540.478483
 20
633.539568
 30
84.742908
 70
    64
  0
VERTEX
  8
I-STEEL
  5
CE4
 10
543.796959
 20
655.539568
 30
81.424432
 70
    64
  0
VERTEX
  8
I-STEEL
  5
CE5
 10
543.796959
 20
644.539568
 30
81.424432
 70
    64
  0
VERTEX
  8
I-STEEL
  5
CE6
 10
543.796959
 20
633.539568
 30
81.424432
 70
    64
  0
VERTEX
  8
I-STEEL
  5
CE7
 10
547.978483
 20
655.539568
 30
79.29384
 70
    64
  0
VERTEX
  8
I-STEEL
  5
CE8
 10
547.978483
 20
644.539568
 30
79.29384
 70
    64
  0
VERTEX
  8
I-STEEL
  5
CE9
 10
547.978483
 20
633.539568
 30
79.29384
 70
    64
  0
VERTEX
  8
I-STEEL
  5
CEA
 10
552.613738
 20
655.539568
 30
78.559687
 70
    64
  0
VERTEX
  8
I-STEEL
  5
CEB
 10
552.613738
 20
644.539568
 30
78.559687
 70
    64
  0
VERTEX
  8
I-STEEL
  5
CEC
 10
552.613738
 20
633.539568
 30
78.559687
 70
    64
  0
VERTEX
  8
I-STEEL
  5
CED
 10
557.248993
 20
655.539568
 30
79.29384
 70
    64
  0
VERTEX
  8
I-STEEL
  5
CEE
 10
557.248993
 20
644.539568
 30
79.29384
 70
    64
  0
VERTEX
  8
I-STEEL
  5
CEF
 10
557.248993
 20
633.539568
 30
79.29384
 70
    64
  0
VERTEX
  8
I-STEEL
  5
CF0
 10
561.430517
 20
655.539568
 30
81.424432
 70
    64
  0
VERTEX
  8
I-STEEL
  5
CF1
 10
561.430517
 20
644.539568
 30
81.424432
 70
    64
  0
VERTEX
  8
I-STEEL
  5
CF2
 10
561.430517
 20
633.539568
 30
81.424432
 70
    64
  0
VERTEX
  8
I-STEEL
  5
CF3
 10
564.748993
 20
655.539568
 30
84.742908
 70
    64
  0
VERTEX
  8
I-STEEL
  5
CF4
 10
564.748993
 20
644.539568
 30
84.742908
 70
    64
  0
VERTEX
  8
I-STEEL
  5
CF5
 10
564.748993
 20
633.539568
 30
84.742908
 70
    64
  0
VERTEX
  8
I-STEEL
  5
CF6
 10
566.879586
 20
655.539568
 30
88.924432
 70
    64
  0
VERTEX
  8
I-STEEL
  5
CF7
 10
566.879586
 20
644.539568
 30
88.924432
 70
    64
  0
VERTEX
  8
I-STEEL
  5
CF8
 10
566.879586
 20
633.539568
 30
88.924432
 70
    64
  0
VERTEX
  8
I-STEEL
  5
CF9
 10
567.613738
 20
655.539568
 30
93.559687
 70
    64
  0
VERTEX
  8
I-STEEL
  5
CFA
 10
567.613738
 20
644.539568
 30
93.559687
 70
    64
  0
VERTEX
  8
I-STEEL
  5
CFB
 10
567.613738
 20
633.539568
 30
93.559687
 70
    64
  0
VERTEX
  8
I-STEEL
  5
CFC
 10
566.879586
 20
655.539568
 30
98.194942
 70
    64
  0
VERTEX
  8
I-STEEL
  5
CFD
 10
566.879586
 20
644.539568
 30
98.194942
 70
    64
  0
VERTEX
  8
I-STEEL
  5
CFE
 10
566.879586
 20
633.539568
 30
98.194942
 70
    64
  0
VERTEX
  8
I-STEEL
  5
CFF
 10
564.748993
 20
655.539568
 30
102.376466
 70
    64
  0
VERTEX
  8
I-STEEL
  5
D00
 10
564.748993
 20
644.539568
 30
102.376466
 70
    64
  0
VERTEX
  8
I-STEEL
  5
D01
 10
564.748993
 20
633.539568
 30
102.376466
 70
    64
  0
VERTEX
  8
I-STEEL
  5
D02
 10
561.430517
 20
655.539568
 30
105.694942
 70
    64
  0
VERTEX
  8
I-STEEL
  5
D03
 10
561.430517
 20
644.539568
 30
105.694942
 70
    64
  0
VERTEX
  8
I-STEEL
  5
D04
 10
561.430517
 20
633.539568
 30
105.694942
 70
    64
  0
VERTEX
  8
I-STEEL
  5
D05
 10
557.248993
 20
655.539568
 30
107.825535
 70
    64
  0
VERTEX
  8
I-STEEL
  5
D06
 10
557.248993
 20
644.539568
 30
107.825535
 70
    64
  0
VERTEX
  8
I-STEEL
  5
D07
 10
557.248993
 20
633.539568
 30
107.825535
 70
    64
  0
SEQEND
  8
I-STEEL
  5
D08
  0
POLYLINE
  8
I-STEEL
  5
D09
 66
     1
 10
0.0
 20
0.0
 30
0.0
 70
    16
 71
     2
 72
     9
  0
VERTEX
  8
I-STEEL
  5
D0A
 10
792.613738
 20
635.539568
 30
93.559687
 70
    64
  0
VERTEX
  8
I-STEEL
  5
D0B
 10
792.613738
 20
635.92017
 30
95.473104
 70
    64
  0
VERTEX
  8
I-STEEL
  5
D0C
 10
792.613738
 20
637.004034
 30
97.095221
 70
    64
  0
VERTEX
  8
I-STEEL
  5
D0D
 10
792.613738
 20
638.626151
 30
98.179085
 70
    64
  0
VERTEX
  8
I-STEEL
  5
D0E
 10
792.613738
 20
640.539568
 30
98.559687
 70
    64
  0
VERTEX
  8
I-STEEL
  5
D0F
 10
792.613738
 20
642.452985
 30
98.179085
 70
    64
  0
VERTEX
  8
I-STEEL
  5
D10
 10
792.613738
 20
644.075102
 30
97.095221
 70
    64
  0
VERTEX
  8
I-STEEL
  5
D11
 10
792.613738
 20
645.158966
 30
95.473104
 70
    64
  0
VERTEX
  8
I-STEEL
  5
D12
 10
792.613738
 20
645.539568
 30
93.559687
 70
    64
  0
VERTEX
  8
I-STEEL
  5
D13
 10
692.613738
 20
635.539568
 30
93.559687
 70
    64
  0
VERTEX
  8
I-STEEL
  5
D14
 10
692.613738
 20
635.92017
 30
95.473104
 70
    64
  0
VERTEX
  8
I-STEEL
  5
D15
 10
692.613738
 20
637.004034
 30
97.095221
 70
    64
  0
VERTEX
  8
I-STEEL
  5
D16
 10
692.613738
 20
638.626151
 30
98.179085
 70
    64
  0
VERTEX
  8
I-STEEL
  5
D17
 10
692.613738
 20
640.539568
 30
98.559687
 70
    64
  0
VERTEX
  8
I-STEEL
  5
D18
 10
692.613738
 20
642.452985
 30
98.179085
 70
    64
  0
VERTEX
  8
I-STEEL
  5
D19
 10
692.613738
 20
644.075102
 30
97.095221
 70
    64
  0
VERTEX
  8
I-STEEL
  5
D1A
 10
692.613738
 20
645.158966
 30
95.473104
 70
    64
  0
VERTEX
  8
I-STEEL
  5
D1B
 10
692.613738
 20
645.539568
 30
93.559687
 70
    64
  0
SEQEND
  8
I-STEEL
  5
D1C
  0
POLYLINE
  8
I-STEEL
  5
D1D
 66
     1
 10
0.0
 20
0.0
 30
0.0
 70
    16
 71
     2
 72
     9
  0
VERTEX
  8
I-STEEL
  5
D1E
 10
792.613738
 20
635.539568
 30
93.559687
 70
    64
  0
VERTEX
  8
I-STEEL
  5
D1F
 10
792.613738
 20
635.92017
 30
91.64627
 70
    64
  0
VERTEX
  8
I-STEEL
  5
D20
 10
792.613738
 20
637.004034
 30
90.024153
 70
    64
  0
VERTEX
  8
I-STEEL
  5
D21
 10
792.613738
 20
638.626151
 30
88.94029
 70
    64
  0
VERTEX
  8
I-STEEL
  5
D22
 10
792.613738
 20
640.539568
 30
88.559687
 70
    64
  0
VERTEX
  8
I-STEEL
  5
D23
 10
792.613738
 20
642.452985
 30
88.94029
 70
    64
  0
VERTEX
  8
I-STEEL
  5
D24
 10
792.613738
 20
644.075102
 30
90.024153
 70
    64
  0
VERTEX
  8
I-STEEL
  5
D25
 10
792.613738
 20
645.158966
 30
91.64627
 70
    64
  0
VERTEX
  8
I-STEEL
  5
D26
 10
792.613738
 20
645.539568
 30
93.559687
 70
    64
  0
VERTEX
  8
I-STEEL
  5
D27
 10
692.613738
 20
635.539568
 30
93.559687
 70
    64
  0
VERTEX
  8
I-STEEL
  5
D28
 10
692.613738
 20
635.92017
 30
91.64627
 70
    64
  0
VERTEX
  8
I-STEEL
  5
D29
 10
692.613738
 20
637.004034
 30
90.024153
 70
    64
  0
VERTEX
  8
I-STEEL
  5
D2A
 10
692.613738
 20
638.626151
 30
88.94029
 70
    64
  0
VERTEX
  8
I-STEEL
  5
D2B
 10
692.613738
 20
640.539568
 30
88.559687
 70
    64
  0
VERTEX
  8
I-STEEL
  5
D2C
 10
692.613738
 20
642.452985
 30
88.94029
 70
    64
  0
VERTEX
  8
I-STEEL
  5
D2D
 10
692.613738
 20
644.075102
 30
90.024153
 70
    64
  0
VERTEX
  8
I-STEEL
  5
D2E
 10
692.613738
 20
645.158966
 30
91.64627
 70
    64
  0
VERTEX
  8
I-STEEL
  5
D2F
 10
692.613738
 20
645.539568
 30
93.559687
 70
    64
  0
SEQEND
  8
I-STEEL
  5
D30
  0
POLYLINE
  8
I-STEEL
  5
D31
 66
     1
 10
0.0
 20
0.0
 30
0.0
 70
    17
 71
    20
 72
     3
  0
VERTEX
  8
I-STEEL
  5
D32
 10
712.613738
 20
655.539568
 30
108.559687
 70
    64
  0
VERTEX
  8
I-STEEL
  5
D33
 10
712.613738
 20
658.039568
 30
116.059687
 70
    64
  0
VERTEX
  8
I-STEEL
  5
D34
 10
712.613738
 20
660.539568
 30
123.559687
 70
    64
  0
VERTEX
  8
I-STEEL
  5
D35
 10
717.248993
 20
655.539568
 30
107.825535
 70
    64
  0
VERTEX
  8
I-STEEL
  5
D36
 10
719.56662
 20
658.039568
 30
114.958459
 70
    64
  0
VERTEX
  8
I-STEEL
  5
D37
 10
721.884248
 20
660.539568
 30
122.091383
 70
    64
  0
VERTEX
  8
I-STEEL
  5
D38
 10
721.430517
 20
655.539568
 30
105.694942
 70
    64
  0
VERTEX
  8
I-STEEL
  5
D39
 10
725.838906
 20
658.039568
 30
111.76257
 70
    64
  0
VERTEX
  8
I-STEEL
  5
D3A
 10
730.247295
 20
660.539568
 30
117.830197
 70
    64
  0
VERTEX
  8
I-STEEL
  5
D3B
 10
724.748993
 20
655.539568
 30
102.376466
 70
    64
  0
VERTEX
  8
I-STEEL
  5
D3C
 10
730.81662
 20
658.039568
 30
106.784855
 70
    64
  0
VERTEX
  8
I-STEEL
  5
D3D
 10
736.884248
 20
660.539568
 30
111.193245
 70
    64
  0
VERTEX
  8
I-STEEL
  5
D3E
 10
726.879586
 20
655.539568
 30
98.194942
 70
    64
  0
VERTEX
  8
I-STEEL
  5
D3F
 10
734.012509
 20
658.039568
 30
100.51257
 70
    64
  0
VERTEX
  8
I-STEEL
  5
D40
 10
741.145433
 20
660.539568
 30
102.830197
 70
    64
  0
VERTEX
  8
I-STEEL
  5
D41
 10
727.613738
 20
655.539568
 30
93.559687
 70
    64
  0
VERTEX
  8
I-STEEL
  5
D42
 10
735.113738
 20
658.039568
 30
93.559687
 70
    64
  0
VERTEX
  8
I-STEEL
  5
D43
 10
742.613738
 20
660.539568
 30
93.559687
 70
    64
  0
VERTEX
  8
I-STEEL
  5
D44
 10
726.879586
 20
655.539568
 30
88.924432
 70
    64
  0
VERTEX
  8
I-STEEL
  5
D45
 10
734.012509
 20
658.039568
 30
86.606805
 70
    64
  0
VERTEX
  8
I-STEEL
  5
D46
 10
741.145433
 20
660.539568
 30
84.289177
 70
    64
  0
VERTEX
  8
I-STEEL
  5
D47
 10
724.748993
 20
655.539568
 30
84.742908
 70
    64
  0
VERTEX
  8
I-STEEL
  5
D48
 10
730.81662
 20
658.039568
 30
80.334519
 70
    64
  0
VERTEX
  8
I-STEEL
  5
D49
 10
736.884248
 20
660.539568
 30
75.92613
 70
    64
  0
VERTEX
  8
I-STEEL
  5
D4A
 10
721.430517
 20
655.539568
 30
81.424432
 70
    64
  0
VERTEX
  8
I-STEEL
  5
D4B
 10
725.838906
 20
658.039568
 30
75.356805
 70
    64
  0
VERTEX
  8
I-STEEL
  5
D4C
 10
730.247295
 20
660.539568
 30
69.289177
 70
    64
  0
VERTEX
  8
I-STEEL
  5
D4D
 10
717.248993
 20
655.539568
 30
79.29384
 70
    64
  0
VERTEX
  8
I-STEEL
  5
D4E
 10
719.56662
 20
658.039568
 30
72.160916
 70
    64
  0
VERTEX
  8
I-STEEL
  5
D4F
 10
721.884248
 20
660.539568
 30
65.027992
 70
    64
  0
VERTEX
  8
I-STEEL
  5
D50
 10
712.613738
 20
655.539568
 30
78.559687
 70
    64
  0
VERTEX
  8
I-STEEL
  5
D51
 10
712.613738
 20
658.039568
 30
71.059687
 70
    64
  0
VERTEX
  8
I-STEEL
  5
D52
 10
712.613738
 20
660.539568
 30
63.559687
 70
    64
  0
VERTEX
  8
I-STEEL
  5
D53
 10
707.978483
 20
655.539568
 30
79.29384
 70
    64
  0
VERTEX
  8
I-STEEL
  5
D54
 10
705.660855
 20
658.039568
 30
72.160916
 70
    64
  0
VERTEX
  8
I-STEEL
  5
D55
 10
703.343228
 20
660.539568
 30
65.027992
 70
    64
  0
VERTEX
  8
I-STEEL
  5
D56
 10
703.796959
 20
655.539568
 30
81.424432
 70
    64
  0
VERTEX
  8
I-STEEL
  5
D57
 10
699.38857
 20
658.039568
 30
75.356805
 70
    64
  0
VERTEX
  8
I-STEEL
  5
D58
 10
694.98018
 20
660.539568
 30
69.289177
 70
    64
  0
VERTEX
  8
I-STEEL
  5
D59
 10
700.478483
 20
655.539568
 30
84.742908
 70
    64
  0
VERTEX
  8
I-STEEL
  5
D5A
 10
694.410855
 20
658.039568
 30
80.334519
 70
    64
  0
VERTEX
  8
I-STEEL
  5
D5B
 10
688.343228
 20
660.539568
 30
75.92613
 70
    64
  0
VERTEX
  8
I-STEEL
  5
D5C
 10
698.34789
 20
655.539568
 30
88.924432
 70
    64
  0
VERTEX
  8
I-STEEL
  5
D5D
 10
691.214966
 20
658.039568
 30
86.606805
 70
    64
  0
VERTEX
  8
I-STEEL
  5
D5E
 10
684.082042
 20
660.539568
 30
84.289177
 70
    64
  0
VERTEX
  8
I-STEEL
  5
D5F
 10
697.613738
 20
655.539568
 30
93.559687
 70
    64
  0
VERTEX
  8
I-STEEL
  5
D60
 10
690.113738
 20
658.039568
 30
93.559687
 70
    64
  0
VERTEX
  8
I-STEEL
  5
D61
 10
682.613738
 20
660.539568
 30
93.559687
 70
    64
  0
VERTEX
  8
I-STEEL
  5
D62
 10
698.34789
 20
655.539568
 30
98.194942
 70
    64
  0
VERTEX
  8
I-STEEL
  5
D63
 10
691.214966
 20
658.039568
 30
100.51257
 70
    64
  0
VERTEX
  8
I-STEEL
  5
D64
 10
684.082042
 20
660.539568
 30
102.830197
 70
    64
  0
VERTEX
  8
I-STEEL
  5
D65
 10
700.478483
 20
655.539568
 30
102.376466
 70
    64
  0
VERTEX
  8
I-STEEL
  5
D66
 10
694.410855
 20
658.039568
 30
106.784855
 70
    64
  0
VERTEX
  8
I-STEEL
  5
D67
 10
688.343228
 20
660.539568
 30
111.193245
 70
    64
  0
VERTEX
  8
I-STEEL
  5
D68
 10
703.796959
 20
655.539568
 30
105.694942
 70
    64
  0
VERTEX
  8
I-STEEL
  5
D69
 10
699.38857
 20
658.039568
 30
111.76257
 70
    64
  0
VERTEX
  8
I-STEEL
  5
D6A
 10
694.98018
 20
660.539568
 30
117.830197
 70
    64
  0
VERTEX
  8
I-STEEL
  5
D6B
 10
707.978483
 20
655.539568
 30
107.825535
 70
    64
  0
VERTEX
  8
I-STEEL
  5
D6C
 10
705.660855
 20
658.039568
 30
114.958459
 70
    64
  0
VERTEX
  8
I-STEEL
  5
D6D
 10
703.343228
 20
660.539568
 30
122.091383
 70
    64
  0
SEQEND
  8
I-STEEL
  5
D6E
  0
POLYLINE
  8
I-STEEL
  5
D70
 66
     1
 10
0.0
 20
0.0
 30
0.0
 70
    17
 71
    20
 72
     3
  0
VERTEX
  8
I-STEEL
  5
D71
 10
712.613738
 20
655.539568
 30
108.559687
 70
    64
  0
VERTEX
  8
I-STEEL
  5
D72
 10
712.613738
 20
644.539568
 30
108.559687
 70
    64
  0
VERTEX
  8
I-STEEL
  5
D73
 10
712.613738
 20
633.539568
 30
108.559687
 70
    64
  0
VERTEX
  8
I-STEEL
  5
D74
 10
717.248993
 20
655.539568
 30
107.825535
 70
    64
  0
VERTEX
  8
I-STEEL
  5
D75
 10
717.248993
 20
644.539568
 30
107.825535
 70
    64
  0
VERTEX
  8
I-STEEL
  5
D76
 10
717.248993
 20
633.539568
 30
107.825535
 70
    64
  0
VERTEX
  8
I-STEEL
  5
D77
 10
721.430517
 20
655.539568
 30
105.694942
 70
    64
  0
VERTEX
  8
I-STEEL
  5
D78
 10
721.430517
 20
644.539568
 30
105.694942
 70
    64
  0
VERTEX
  8
I-STEEL
  5
D79
 10
721.430517
 20
633.539568
 30
105.694942
 70
    64
  0
VERTEX
  8
I-STEEL
  5
D7A
 10
724.748993
 20
655.539568
 30
102.376466
 70
    64
  0
VERTEX
  8
I-STEEL
  5
D7B
 10
724.748993
 20
644.539568
 30
102.376466
 70
    64
  0
VERTEX
  8
I-STEEL
  5
D7C
 10
724.748993
 20
633.539568
 30
102.376466
 70
    64
  0
VERTEX
  8
I-STEEL
  5
D7D
 10
726.879586
 20
655.539568
 30
98.194942
 70
    64
  0
VERTEX
  8
I-STEEL
  5
D7E
 10
726.879586
 20
644.539568
 30
98.194942
 70
    64
  0
VERTEX
  8
I-STEEL
  5
D7F
 10
726.879586
 20
633.539568
 30
98.194942
 70
    64
  0
VERTEX
  8
I-STEEL
  5
D80
 10
727.613738
 20
655.539568
 30
93.559687
 70
    64
  0
VERTEX
  8
I-STEEL
  5
D81
 10
727.613738
 20
644.539568
 30
93.559687
 70
    64
  0
VERTEX
  8
I-STEEL
  5
D82
 10
727.613738
 20
633.539568
 30
93.559687
 70
    64
  0
VERTEX
  8
I-STEEL
  5
D83
 10
726.879586
 20
655.539568
 30
88.924432
 70
    64
  0
VERTEX
  8
I-STEEL
  5
D84
 10
726.879586
 20
644.539568
 30
88.924432
 70
    64
  0
VERTEX
  8
I-STEEL
  5
D85
 10
726.879586
 20
633.539568
 30
88.924432
 70
    64
  0
VERTEX
  8
I-STEEL
  5
D86
 10
724.748993
 20
655.539568
 30
84.742908
 70
    64
  0
VERTEX
  8
I-STEEL
  5
D87
 10
724.748993
 20
644.539568
 30
84.742908
 70
    64
  0
VERTEX
  8
I-STEEL
  5
D88
 10
724.748993
 20
633.539568
 30
84.742908
 70
    64
  0
VERTEX
  8
I-STEEL
  5
D89
 10
721.430517
 20
655.539568
 30
81.424432
 70
    64
  0
VERTEX
  8
I-STEEL
  5
D8A
 10
721.430517
 20
644.539568
 30
81.424432
 70
    64
  0
VERTEX
  8
I-STEEL
  5
D8B
 10
721.430517
 20
633.539568
 30
81.424432
 70
    64
  0
VERTEX
  8
I-STEEL
  5
D8C
 10
717.248993
 20
655.539568
 30
79.29384
 70
    64
  0
VERTEX
  8
I-STEEL
  5
D8D
 10
717.248993
 20
644.539568
 30
79.29384
 70
    64
  0
VERTEX
  8
I-STEEL
  5
D8E
 10
717.248993
 20
633.539568
 30
79.29384
 70
    64
  0
VERTEX
  8
I-STEEL
  5
D8F
 10
712.613738
 20
655.539568
 30
78.559687
 70
    64
  0
VERTEX
  8
I-STEEL
  5
D90
 10
712.613738
 20
644.539568
 30
78.559687
 70
    64
  0
VERTEX
  8
I-STEEL
  5
D91
 10
712.613738
 20
633.539568
 30
78.559687
 70
    64
  0
VERTEX
  8
I-STEEL
  5
D92
 10
707.978483
 20
655.539568
 30
79.29384
 70
    64
  0
VERTEX
  8
I-STEEL
  5
D93
 10
707.978483
 20
644.539568
 30
79.29384
 70
    64
  0
VERTEX
  8
I-STEEL
  5
D94
 10
707.978483
 20
633.539568
 30
79.29384
 70
    64
  0
VERTEX
  8
I-STEEL
  5
D95
 10
703.796959
 20
655.539568
 30
81.424432
 70
    64
  0
VERTEX
  8
I-STEEL
  5
D96
 10
703.796959
 20
644.539568
 30
81.424432
 70
    64
  0
VERTEX
  8
I-STEEL
  5
D97
 10
703.796959
 20
633.539568
 30
81.424432
 70
    64
  0
VERTEX
  8
I-STEEL
  5
D98
 10
700.478483
 20
655.539568
 30
84.742908
 70
    64
  0
VERTEX
  8
I-STEEL
  5
D99
 10
700.478483
 20
644.539568
 30
84.742908
 70
    64
  0
VERTEX
  8
I-STEEL
  5
D9A
 10
700.478483
 20
633.539568
 30
84.742908
 70
    64
  0
VERTEX
  8
I-STEEL
  5
D9B
 10
698.34789
 20
655.539568
 30
88.924432
 70
    64
  0
VERTEX
  8
I-STEEL
  5
D9C
 10
698.34789
 20
644.539568
 30
88.924432
 70
    64
  0
VERTEX
  8
I-STEEL
  5
D9D
 10
698.34789
 20
633.539568
 30
88.924432
 70
    64
  0
VERTEX
  8
I-STEEL
  5
D9E
 10
697.613738
 20
655.539568
 30
93.559687
 70
    64
  0
VERTEX
  8
I-STEEL
  5
D9F
 10
697.613738
 20
644.539568
 30
93.559687
 70
    64
  0
VERTEX
  8
I-STEEL
  5
DA0
 10
697.613738
 20
633.539568
 30
93.559687
 70
    64
  0
VERTEX
  8
I-STEEL
  5
DA1
 10
698.34789
 20
655.539568
 30
98.194942
 70
    64
  0
VERTEX
  8
I-STEEL
  5
DA2
 10
698.34789
 20
644.539568
 30
98.194942
 70
    64
  0
VERTEX
  8
I-STEEL
  5
DA3
 10
698.34789
 20
633.539568
 30
98.194942
 70
    64
  0
VERTEX
  8
I-STEEL
  5
DA4
 10
700.478483
 20
655.539568
 30
102.376466
 70
    64
  0
VERTEX
  8
I-STEEL
  5
DA5
 10
700.478483
 20
644.539568
 30
102.376466
 70
    64
  0
VERTEX
  8
I-STEEL
  5
DA6
 10
700.478483
 20
633.539568
 30
102.376466
 70
    64
  0
VERTEX
  8
I-STEEL
  5
DA7
 10
703.796959
 20
655.539568
 30
105.694942
 70
    64
  0
VERTEX
  8
I-STEEL
  5
DA8
 10
703.796959
 20
644.539568
 30
105.694942
 70
    64
  0
VERTEX
  8
I-STEEL
  5
DA9
 10
703.796959
 20
633.539568
 30
105.694942
 70
    64
  0
VERTEX
  8
I-STEEL
  5
DAA
 10
707.978483
 20
655.539568
 30
107.825535
 70
    64
  0
VERTEX
  8
I-STEEL
  5
DAB
 10
707.978483
 20
644.539568
 30
107.825535
 70
    64
  0
VERTEX
  8
I-STEEL
  5
DAC
 10
707.978483
 20
633.539568
 30
107.825535
 70
    64
  0
SEQEND
  8
I-STEEL
  5
DAD
  0
POLYLINE
  8
I-STEEL
  5
DAE
 66
     1
 10
0.0
 20
0.0
 30
0.0
 70
    17
 71
    20
 72
     3
  0
VERTEX
  8
I-STEEL
  5
DAF
 10
712.613738
 20
633.539568
 30
108.559687
 70
    64
  0
VERTEX
  8
I-STEEL
  5
DB0
 10
712.613738
 20
632.039568
 30
107.059687
 70
    64
  0
VERTEX
  8
I-STEEL
  5
DB1
 10
712.613738
 20
630.539568
 30
105.559687
 70
    64
  0
VERTEX
  8
I-STEEL
  5
DB2
 10
717.248993
 20
633.539568
 30
107.825535
 70
    64
  0
VERTEX
  8
I-STEEL
  5
DB3
 10
716.785467
 20
632.039568
 30
106.39895
 70
    64
  0
VERTEX
  8
I-STEEL
  5
DB4
 10
716.321942
 20
630.539568
 30
104.972365
 70
    64
  0
VERTEX
  8
I-STEEL
  5
DB5
 10
721.430517
 20
633.539568
 30
105.694942
 70
    64
  0
VERTEX
  8
I-STEEL
  5
DB6
 10
720.548839
 20
632.039568
 30
104.481417
 70
    64
  0
VERTEX
  8
I-STEEL
  5
DB7
 10
719.667161
 20
630.539568
 30
103.267891
 70
    64
  0
VERTEX
  8
I-STEEL
  5
DB8
 10
724.748993
 20
633.539568
 30
102.376466
 70
    64
  0
VERTEX
  8
I-STEEL
  5
DB9
 10
723.535467
 20
632.039568
 30
101.494788
 70
    64
  0
VERTEX
  8
I-STEEL
  5
DBA
 10
722.321942
 20
630.539568
 30
100.61311
 70
    64
  0
VERTEX
  8
I-STEEL
  5
DBB
 10
726.879586
 20
633.539568
 30
98.194942
 70
    64
  0
VERTEX
  8
I-STEEL
  5
DBC
 10
725.453001
 20
632.039568
 30
97.731417
 70
    64
  0
VERTEX
  8
I-STEEL
  5
DBD
 10
724.026416
 20
630.539568
 30
97.267891
 70
    64
  0
VERTEX
  8
I-STEEL
  5
DBE
 10
727.613738
 20
633.539568
 30
93.559687
 70
    64
  0
VERTEX
  8
I-STEEL
  5
DBF
 10
726.113738
 20
632.039568
 30
93.559687
 70
    64
  0
VERTEX
  8
I-STEEL
  5
DC0
 10
724.613738
 20
630.539568
 30
93.559687
 70
    64
  0
VERTEX
  8
I-STEEL
  5
DC1
 10
726.879586
 20
633.539568
 30
88.924432
 70
    64
  0
VERTEX
  8
I-STEEL
  5
DC2
 10
725.453001
 20
632.039568
 30
89.387958
 70
    64
  0
VERTEX
  8
I-STEEL
  5
DC3
 10
724.026416
 20
630.539568
 30
89.851483
 70
    64
  0
VERTEX
  8
I-STEEL
  5
DC4
 10
724.748993
 20
633.539568
 30
84.742908
 70
    64
  0
VERTEX
  8
I-STEEL
  5
DC5
 10
723.535467
 20
632.039568
 30
85.624586
 70
    64
  0
VERTEX
  8
I-STEEL
  5
DC6
 10
722.321942
 20
630.539568
 30
86.506264
 70
    64
  0
VERTEX
  8
I-STEEL
  5
DC7
 10
721.430517
 20
633.539568
 30
81.424432
 70
    64
  0
VERTEX
  8
I-STEEL
  5
DC8
 10
720.548839
 20
632.039568
 30
82.637958
 70
    64
  0
VERTEX
  8
I-STEEL
  5
DC9
 10
719.667161
 20
630.539568
 30
83.851483
 70
    64
  0
VERTEX
  8
I-STEEL
  5
DCA
 10
717.248993
 20
633.539568
 30
79.29384
 70
    64
  0
VERTEX
  8
I-STEEL
  5
DCB
 10
716.785467
 20
632.039568
 30
80.720424
 70
    64
  0
VERTEX
  8
I-STEEL
  5
DCC
 10
716.321942
 20
630.539568
 30
82.147009
 70
    64
  0
VERTEX
  8
I-STEEL
  5
DCD
 10
712.613738
 20
633.539568
 30
78.559687
 70
    64
  0
VERTEX
  8
I-STEEL
  5
DCE
 10
712.613738
 20
632.039568
 30
80.059687
 70
    64
  0
VERTEX
  8
I-STEEL
  5
DCF
 10
712.613738
 20
630.539568
 30
81.559687
 70
    64
  0
VERTEX
  8
I-STEEL
  5
DD0
 10
707.978483
 20
633.539568
 30
79.29384
 70
    64
  0
VERTEX
  8
I-STEEL
  5
DD1
 10
708.442008
 20
632.039568
 30
80.720424
 70
    64
  0
VERTEX
  8
I-STEEL
  5
DD2
 10
708.905534
 20
630.539568
 30
82.147009
 70
    64
  0
VERTEX
  8
I-STEEL
  5
DD3
 10
703.796959
 20
633.539568
 30
81.424432
 70
    64
  0
VERTEX
  8
I-STEEL
  5
DD4
 10
704.678637
 20
632.039568
 30
82.637958
 70
    64
  0
VERTEX
  8
I-STEEL
  5
DD5
 10
705.560315
 20
630.539568
 30
83.851483
 70
    64
  0
VERTEX
  8
I-STEEL
  5
DD6
 10
700.478483
 20
633.539568
 30
84.742908
 70
    64
  0
VERTEX
  8
I-STEEL
  5
DD7
 10
701.692008
 20
632.039568
 30
85.624586
 70
    64
  0
VERTEX
  8
I-STEEL
  5
DD8
 10
702.905534
 20
630.539568
 30
86.506264
 70
    64
  0
VERTEX
  8
I-STEEL
  5
DD9
 10
698.34789
 20
633.539568
 30
88.924432
 70
    64
  0
VERTEX
  8
I-STEEL
  5
DDA
 10
699.774475
 20
632.039568
 30
89.387958
 70
    64
  0
VERTEX
  8
I-STEEL
  5
DDB
 10
701.20106
 20
630.539568
 30
89.851483
 70
    64
  0
VERTEX
  8
I-STEEL
  5
DDC
 10
697.613738
 20
633.539568
 30
93.559687
 70
    64
  0
VERTEX
  8
I-STEEL
  5
DDD
 10
699.113738
 20
632.039568
 30
93.559687
 70
    64
  0
VERTEX
  8
I-STEEL
  5
DDE
 10
700.613738
 20
630.539568
 30
93.559687
 70
    64
  0
VERTEX
  8
I-STEEL
  5
DDF
 10
698.34789
 20
633.539568
 30
98.194942
 70
    64
  0
VERTEX
  8
I-STEEL
  5
DE0
 10
699.774475
 20
632.039568
 30
97.731417
 70
    64
  0
VERTEX
  8
I-STEEL
  5
DE1
 10
701.20106
 20
630.539568
 30
97.267891
 70
    64
  0
VERTEX
  8
I-STEEL
  5
DE2
 10
700.478483
 20
633.539568
 30
102.376466
 70
    64
  0
VERTEX
  8
I-STEEL
  5
DE3
 10
701.692008
 20
632.039568
 30
101.494788
 70
    64
  0
VERTEX
  8
I-STEEL
  5
DE4
 10
702.905534
 20
630.539568
 30
100.61311
 70
    64
  0
VERTEX
  8
I-STEEL
  5
DE5
 10
703.796959
 20
633.539568
 30
105.694942
 70
    64
  0
VERTEX
  8
I-STEEL
  5
DE6
 10
704.678637
 20
632.039568
 30
104.481417
 70
    64
  0
VERTEX
  8
I-STEEL
  5
DE7
 10
705.560315
 20
630.539568
 30
103.267891
 70
    64
  0
VERTEX
  8
I-STEEL
  5
DE8
 10
707.978483
 20
633.539568
 30
107.825535
 70
    64
  0
VERTEX
  8
I-STEEL
  5
DE9
 10
708.442008
 20
632.039568
 30
106.39895
 70
    64
  0
VERTEX
  8
I-STEEL
  5
DEA
 10
708.905534
 20
630.539568
 30
104.972365
 70
    64
  0
SEQEND
  8
I-STEEL
  5
DEB
  0
POLYLINE
  8
I-STEEL
  5
DEC
 66
     1
 10
0.0
 20
0.0
 30
0.0
 70
    17
 71
    20
 72
     3
  0
VERTEX
  8
I-STEEL
  5
DED
 10
712.613738
 20
630.539568
 30
93.559687
 70
    64
  0
VERTEX
  8
I-STEEL
  5
DEE
 10
712.613738
 20
630.539568
 30
99.559687
 70
    64
  0
VERTEX
  8
I-STEEL
  5
DEF
 10
712.613738
 20
630.539568
 30
105.559687
 70
    64
  0
VERTEX
  8
I-STEEL
  5
DF0
 10
712.613738
 20
630.539568
 30
93.559687
 70
    64
  0
VERTEX
  8
I-STEEL
  5
DF1
 10
714.46784
 20
630.539568
 30
99.266026
 70
    64
  0
VERTEX
  8
I-STEEL
  5
DF2
 10
716.321942
 20
630.539568
 30
104.972365
 70
    64
  0
VERTEX
  8
I-STEEL
  5
DF3
 10
712.613738
 20
630.539568
 30
93.559687
 70
    64
  0
VERTEX
  8
I-STEEL
  5
DF4
 10
716.140449
 20
630.539568
 30
98.413789
 70
    64
  0
VERTEX
  8
I-STEEL
  5
DF5
 10
719.667161
 20
630.539568
 30
103.267891
 70
    64
  0
VERTEX
  8
I-STEEL
  5
DF6
 10
712.613738
 20
630.539568
 30
93.559687
 70
    64
  0
VERTEX
  8
I-STEEL
  5
DF7
 10
717.46784
 20
630.539568
 30
97.086399
 70
    64
  0
VERTEX
  8
I-STEEL
  5
DF8
 10
722.321942
 20
630.539568
 30
100.61311
 70
    64
  0
VERTEX
  8
I-STEEL
  5
DF9
 10
712.613738
 20
630.539568
 30
93.559687
 70
    64
  0
VERTEX
  8
I-STEEL
  5
DFA
 10
718.320077
 20
630.539568
 30
95.413789
 70
    64
  0
VERTEX
  8
I-STEEL
  5
DFB
 10
724.026416
 20
630.539568
 30
97.267891
 70
    64
  0
VERTEX
  8
I-STEEL
  5
DFC
 10
712.613738
 20
630.539568
 30
93.559687
 70
    64
  0
VERTEX
  8
I-STEEL
  5
DFD
 10
718.613738
 20
630.539568
 30
93.559687
 70
    64
  0
VERTEX
  8
I-STEEL
  5
DFE
 10
724.613738
 20
630.539568
 30
93.559687
 70
    64
  0
VERTEX
  8
I-STEEL
  5
DFF
 10
712.613738
 20
630.539568
 30
93.559687
 70
    64
  0
VERTEX
  8
I-STEEL
  5
E00
 10
718.320077
 20
630.539568
 30
91.705585
 70
    64
  0
VERTEX
  8
I-STEEL
  5
E01
 10
724.026416
 20
630.539568
 30
89.851483
 70
    64
  0
VERTEX
  8
I-STEEL
  5
E02
 10
712.613738
 20
630.539568
 30
93.559687
 70
    64
  0
VERTEX
  8
I-STEEL
  5
E03
 10
717.46784
 20
630.539568
 30
90.032976
 70
    64
  0
VERTEX
  8
I-STEEL
  5
E04
 10
722.321942
 20
630.539568
 30
86.506264
 70
    64
  0
VERTEX
  8
I-STEEL
  5
E05
 10
712.613738
 20
630.539568
 30
93.559687
 70
    64
  0
VERTEX
  8
I-STEEL
  5
E06
 10
716.140449
 20
630.539568
 30
88.705585
 70
    64
  0
VERTEX
  8
I-STEEL
  5
E07
 10
719.667161
 20
630.539568
 30
83.851483
 70
    64
  0
VERTEX
  8
I-STEEL
  5
E08
 10
712.613738
 20
630.539568
 30
93.559687
 70
    64
  0
VERTEX
  8
I-STEEL
  5
E09
 10
714.46784
 20
630.539568
 30
87.853348
 70
    64
  0
VERTEX
  8
I-STEEL
  5
E0A
 10
716.321942
 20
630.539568
 30
82.147009
 70
    64
  0
VERTEX
  8
I-STEEL
  5
E0B
 10
712.613738
 20
630.539568
 30
93.559687
 70
    64
  0
VERTEX
  8
I-STEEL
  5
E0C
 10
712.613738
 20
630.539568
 30
87.559687
 70
    64
  0
VERTEX
  8
I-STEEL
  5
E0D
 10
712.613738
 20
630.539568
 30
81.559687
 70
    64
  0
VERTEX
  8
I-STEEL
  5
E0E
 10
712.613738
 20
630.539568
 30
93.559687
 70
    64
  0
VERTEX
  8
I-STEEL
  5
E0F
 10
710.759636
 20
630.539568
 30
87.853348
 70
    64
  0
VERTEX
  8
I-STEEL
  5
E10
 10
708.905534
 20
630.539568
 30
82.147009
 70
    64
  0
VERTEX
  8
I-STEEL
  5
E11
 10
712.613738
 20
630.539568
 30
93.559687
 70
    64
  0
VERTEX
  8
I-STEEL
  5
E12
 10
709.087026
 20
630.539568
 30
88.705585
 70
    64
  0
VERTEX
  8
I-STEEL
  5
E13
 10
705.560315
 20
630.539568
 30
83.851483
 70
    64
  0
VERTEX
  8
I-STEEL
  5
E14
 10
712.613738
 20
630.539568
 30
93.559687
 70
    64
  0
VERTEX
  8
I-STEEL
  5
E15
 10
707.759636
 20
630.539568
 30
90.032976
 70
    64
  0
VERTEX
  8
I-STEEL
  5
E16
 10
702.905534
 20
630.539568
 30
86.506264
 70
    64
  0
VERTEX
  8
I-STEEL
  5
E17
 10
712.613738
 20
630.539568
 30
93.559687
 70
    64
  0
VERTEX
  8
I-STEEL
  5
E18
 10
706.907399
 20
630.539568
 30
91.705585
 70
    64
  0
VERTEX
  8
I-STEEL
  5
E19
 10
701.20106
 20
630.539568
 30
89.851483
 70
    64
  0
VERTEX
  8
I-STEEL
  5
E1A
 10
712.613738
 20
630.539568
 30
93.559687
 70
    64
  0
VERTEX
  8
I-STEEL
  5
E1B
 10
706.613738
 20
630.539568
 30
93.559687
 70
    64
  0
VERTEX
  8
I-STEEL
  5
E1C
 10
700.613738
 20
630.539568
 30
93.559687
 70
    64
  0
VERTEX
  8
I-STEEL
  5
E1D
 10
712.613738
 20
630.539568
 30
93.559687
 70
    64
  0
VERTEX
  8
I-STEEL
  5
E1E
 10
706.907399
 20
630.539568
 30
95.413789
 70
    64
  0
VERTEX
  8
I-STEEL
  5
E1F
 10
701.20106
 20
630.539568
 30
97.267891
 70
    64
  0
VERTEX
  8
I-STEEL
  5
E20
 10
712.613738
 20
630.539568
 30
93.559687
 70
    64
  0
VERTEX
  8
I-STEEL
  5
E21
 10
707.759636
 20
630.539568
 30
97.086399
 70
    64
  0
VERTEX
  8
I-STEEL
  5
E22
 10
702.905534
 20
630.539568
 30
100.61311
 70
    64
  0
VERTEX
  8
I-STEEL
  5
E23
 10
712.613738
 20
630.539568
 30
93.559687
 70
    64
  0
VERTEX
  8
I-STEEL
  5
E24
 10
709.087026
 20
630.539568
 30
98.413789
 70
    64
  0
VERTEX
  8
I-STEEL
  5
E25
 10
705.560315
 20
630.539568
 30
103.267891
 70
    64
  0
VERTEX
  8
I-STEEL
  5
E26
 10
712.613738
 20
630.539568
 30
93.559687
 70
    64
  0
VERTEX
  8
I-STEEL
  5
E27
 10
710.759636
 20
630.539568
 30
99.266026
 70
    64
  0
VERTEX
  8
I-STEEL
  5
E28
 10
708.905534
 20
630.539568
 30
104.972365
 70
    64
  0
SEQEND
  8
I-STEEL
  5
E29
  0
POLYLINE
  8
I-STEEL
  5
E30
 66
     1
 10
0.0
 20
0.0
 30
0.0
 70
    16
 71
     2
 72
     9
  0
VERTEX
  8
I-STEEL
  5
E31
 10
692.613738
 20
645.539568
 30
93.559687
 70
    64
  0
VERTEX
  8
I-STEEL
  5
E32
 10
692.613738
 20
645.158966
 30
95.473104
 70
    64
  0
VERTEX
  8
I-STEEL
  5
E33
 10
692.613738
 20
644.075102
 30
97.095221
 70
    64
  0
VERTEX
  8
I-STEEL
  5
E34
 10
692.613738
 20
642.452985
 30
98.179085
 70
    64
  0
VERTEX
  8
I-STEEL
  5
E35
 10
692.613738
 20
640.539568
 30
98.559687
 70
    64
  0
VERTEX
  8
I-STEEL
  5
E36
 10
692.613738
 20
638.626151
 30
98.179085
 70
    64
  0
VERTEX
  8
I-STEEL
  5
E37
 10
692.613738
 20
637.004034
 30
97.095221
 70
    64
  0
VERTEX
  8
I-STEEL
  5
E38
 10
692.613738
 20
635.92017
 30
95.473104
 70
    64
  0
VERTEX
  8
I-STEEL
  5
E39
 10
692.613738
 20
635.539568
 30
93.559687
 70
    64
  0
VERTEX
  8
I-STEEL
  5
E3A
 10
692.613738
 20
645.539568
 30
93.559687
 70
    64
  0
VERTEX
  8
I-STEEL
  5
E3B
 10
692.613738
 20
644.289568
 30
93.559687
 70
    64
  0
VERTEX
  8
I-STEEL
  5
E3C
 10
692.613738
 20
643.039568
 30
93.559687
 70
    64
  0
VERTEX
  8
I-STEEL
  5
E3D
 10
692.613738
 20
641.789568
 30
93.559687
 70
    64
  0
VERTEX
  8
I-STEEL
  5
E3E
 10
692.613738
 20
640.539568
 30
93.559687
 70
    64
  0
VERTEX
  8
I-STEEL
  5
E3F
 10
692.613738
 20
639.289568
 30
93.559687
 70
    64
  0
VERTEX
  8
I-STEEL
  5
E40
 10
692.613738
 20
638.039568
 30
93.559687
 70
    64
  0
VERTEX
  8
I-STEEL
  5
E41
 10
692.613738
 20
636.789568
 30
93.559687
 70
    64
  0
VERTEX
  8
I-STEEL
  5
E42
 10
692.613738
 20
635.539568
 30
93.559687
 70
    64
  0
SEQEND
  8
I-STEEL
  5
E43
  0
POLYLINE
  8
I-STEEL
  5
E44
 66
     1
 10
0.0
 20
0.0
 30
0.0
 70
    16
 71
     2
 72
     9
  0
VERTEX
  8
I-STEEL
  5
E45
 10
692.613738
 20
645.539568
 30
93.559687
 70
    64
  0
VERTEX
  8
I-STEEL
  5
E46
 10
692.613738
 20
645.158966
 30
91.64627
 70
    64
  0
VERTEX
  8
I-STEEL
  5
E47
 10
692.613738
 20
644.075102
 30
90.024153
 70
    64
  0
VERTEX
  8
I-STEEL
  5
E48
 10
692.613738
 20
642.452985
 30
88.94029
 70
    64
  0
VERTEX
  8
I-STEEL
  5
E49
 10
692.613738
 20
640.539568
 30
88.559687
 70
    64
  0
VERTEX
  8
I-STEEL
  5
E4A
 10
692.613738
 20
638.626151
 30
88.94029
 70
    64
  0
VERTEX
  8
I-STEEL
  5
E4B
 10
692.613738
 20
637.004034
 30
90.024153
 70
    64
  0
VERTEX
  8
I-STEEL
  5
E4C
 10
692.613738
 20
635.92017
 30
91.64627
 70
    64
  0
VERTEX
  8
I-STEEL
  5
E4D
 10
692.613738
 20
635.539568
 30
93.559687
 70
    64
  0
VERTEX
  8
I-STEEL
  5
E4E
 10
692.613738
 20
645.539568
 30
93.559687
 70
    64
  0
VERTEX
  8
I-STEEL
  5
E4F
 10
692.613738
 20
644.289568
 30
93.559687
 70
    64
  0
VERTEX
  8
I-STEEL
  5
E50
 10
692.613738
 20
643.039568
 30
93.559687
 70
    64
  0
VERTEX
  8
I-STEEL
  5
E51
 10
692.613738
 20
641.789568
 30
93.559687
 70
    64
  0
VERTEX
  8
I-STEEL
  5
E52
 10
692.613738
 20
640.539568
 30
93.559687
 70
    64
  0
VERTEX
  8
I-STEEL
  5
E53
 10
692.613738
 20
639.289568
 30
93.559687
 70
    64
  0
VERTEX
  8
I-STEEL
  5
E54
 10
692.613738
 20
638.039568
 30
93.559687
 70
    64
  0
VERTEX
  8
I-STEEL
  5
E55
 10
692.613738
 20
636.789568
 30
93.559687
 70
    64
  0
VERTEX
  8
I-STEEL
  5
E56
 10
692.613738
 20
635.539568
 30
93.559687
 70
    64
  0
SEQEND
  8
I-STEEL
  5
E57
  0
POLYLINE
  8
I-STEEL
  5
E5A
 66
     1
 10
0.0
 20
0.0
 30
0.0
 70
    17
 71
    20
 72
     3
  0
VERTEX
  8
I-STEEL
  5
E5B
 10
712.613738
 20
665.539568
 30
123.559687
 70
    64
  0
VERTEX
  8
I-STEEL
  5
E5C
 10
712.613738
 20
663.039568
 30
123.559687
 70
    64
  0
VERTEX
  8
I-STEEL
  5
E5D
 10
712.613738
 20
660.539568
 30
123.559687
 70
    64
  0
VERTEX
  8
I-STEEL
  5
E5E
 10
721.884248
 20
665.539568
 30
122.091383
 70
    64
  0
VERTEX
  8
I-STEEL
  5
E5F
 10
721.884248
 20
663.039568
 30
122.091383
 70
    64
  0
VERTEX
  8
I-STEEL
  5
E60
 10
721.884248
 20
660.539568
 30
122.091383
 70
    64
  0
VERTEX
  8
I-STEEL
  5
E61
 10
730.247295
 20
665.539568
 30
117.830197
 70
    64
  0
VERTEX
  8
I-STEEL
  5
E62
 10
730.247295
 20
663.039568
 30
117.830197
 70
    64
  0
VERTEX
  8
I-STEEL
  5
E63
 10
730.247295
 20
660.539568
 30
117.830197
 70
    64
  0
VERTEX
  8
I-STEEL
  5
E64
 10
736.884248
 20
665.539568
 30
111.193245
 70
    64
  0
VERTEX
  8
I-STEEL
  5
E65
 10
736.884248
 20
663.039568
 30
111.193245
 70
    64
  0
VERTEX
  8
I-STEEL
  5
E66
 10
736.884248
 20
660.539568
 30
111.193245
 70
    64
  0
VERTEX
  8
I-STEEL
  5
E67
 10
741.145433
 20
665.539568
 30
102.830197
 70
    64
  0
VERTEX
  8
I-STEEL
  5
E68
 10
741.145433
 20
663.039568
 30
102.830197
 70
    64
  0
VERTEX
  8
I-STEEL
  5
E69
 10
741.145433
 20
660.539568
 30
102.830197
 70
    64
  0
VERTEX
  8
I-STEEL
  5
E6A
 10
742.613738
 20
665.539568
 30
93.559687
 70
    64
  0
VERTEX
  8
I-STEEL
  5
E6B
 10
742.613738
 20
663.039568
 30
93.559687
 70
    64
  0
VERTEX
  8
I-STEEL
  5
E6C
 10
742.613738
 20
660.539568
 30
93.559687
 70
    64
  0
VERTEX
  8
I-STEEL
  5
E6D
 10
741.145433
 20
665.539568
 30
84.289177
 70
    64
  0
VERTEX
  8
I-STEEL
  5
E6E
 10
741.145433
 20
663.039568
 30
84.289177
 70
    64
  0
VERTEX
  8
I-STEEL
  5
E6F
 10
741.145433
 20
660.539568
 30
84.289177
 70
    64
  0
VERTEX
  8
I-STEEL
  5
E70
 10
736.884248
 20
665.539568
 30
75.92613
 70
    64
  0
VERTEX
  8
I-STEEL
  5
E71
 10
736.884248
 20
663.039568
 30
75.92613
 70
    64
  0
VERTEX
  8
I-STEEL
  5
E72
 10
736.884248
 20
660.539568
 30
75.92613
 70
    64
  0
VERTEX
  8
I-STEEL
  5
E73
 10
730.247295
 20
665.539568
 30
69.289177
 70
    64
  0
VERTEX
  8
I-STEEL
  5
E74
 10
730.247295
 20
663.039568
 30
69.289177
 70
    64
  0
VERTEX
  8
I-STEEL
  5
E75
 10
730.247295
 20
660.539568
 30
69.289177
 70
    64
  0
VERTEX
  8
I-STEEL
  5
E76
 10
721.884248
 20
665.539568
 30
65.027992
 70
    64
  0
VERTEX
  8
I-STEEL
  5
E77
 10
721.884248
 20
663.039568
 30
65.027992
 70
    64
  0
VERTEX
  8
I-STEEL
  5
E78
 10
721.884248
 20
660.539568
 30
65.027992
 70
    64
  0
VERTEX
  8
I-STEEL
  5
E79
 10
712.613738
 20
665.539568
 30
63.559687
 70
    64
  0
VERTEX
  8
I-STEEL
  5
E7A
 10
712.613738
 20
663.039568
 30
63.559687
 70
    64
  0
VERTEX
  8
I-STEEL
  5
E7B
 10
712.613738
 20
660.539568
 30
63.559687
 70
    64
  0
VERTEX
  8
I-STEEL
  5
E7C
 10
703.343228
 20
665.539568
 30
65.027992
 70
    64
  0
VERTEX
  8
I-STEEL
  5
E7D
 10
703.343228
 20
663.039568
 30
65.027992
 70
    64
  0
VERTEX
  8
I-STEEL
  5
E7E
 10
703.343228
 20
660.539568
 30
65.027992
 70
    64
  0
VERTEX
  8
I-STEEL
  5
E7F
 10
694.98018
 20
665.539568
 30
69.289177
 70
    64
  0
VERTEX
  8
I-STEEL
  5
E80
 10
694.98018
 20
663.039568
 30
69.289177
 70
    64
  0
VERTEX
  8
I-STEEL
  5
E81
 10
694.98018
 20
660.539568
 30
69.289177
 70
    64
  0
VERTEX
  8
I-STEEL
  5
E82
 10
688.343228
 20
665.539568
 30
75.92613
 70
    64
  0
VERTEX
  8
I-STEEL
  5
E83
 10
688.343228
 20
663.039568
 30
75.92613
 70
    64
  0
VERTEX
  8
I-STEEL
  5
E84
 10
688.343228
 20
660.539568
 30
75.92613
 70
    64
  0
VERTEX
  8
I-STEEL
  5
E85
 10
684.082042
 20
665.539568
 30
84.289177
 70
    64
  0
VERTEX
  8
I-STEEL
  5
E86
 10
684.082042
 20
663.039568
 30
84.289177
 70
    64
  0
VERTEX
  8
I-STEEL
  5
E87
 10
684.082042
 20
660.539568
 30
84.289177
 70
    64
  0
VERTEX
  8
I-STEEL
  5
E88
 10
682.613738
 20
665.539568
 30
93.559687
 70
    64
  0
VERTEX
  8
I-STEEL
  5
E89
 10
682.613738
 20
663.039568
 30
93.559687
 70
    64
  0
VERTEX
  8
I-STEEL
  5
E8A
 10
682.613738
 20
660.539568
 30
93.559687
 70
    64
  0
VERTEX
  8
I-STEEL
  5
E8B
 10
684.082042
 20
665.539568
 30
102.830197
 70
    64
  0
VERTEX
  8
I-STEEL
  5
E8C
 10
684.082042
 20
663.039568
 30
102.830197
 70
    64
  0
VERTEX
  8
I-STEEL
  5
E8D
 10
684.082042
 20
660.539568
 30
102.830197
 70
    64
  0
VERTEX
  8
I-STEEL
  5
E8E
 10
688.343228
 20
665.539568
 30
111.193245
 70
    64
  0
VERTEX
  8
I-STEEL
  5
E8F
 10
688.343228
 20
663.039568
 30
111.193245
 70
    64
  0
VERTEX
  8
I-STEEL
  5
E90
 10
688.343228
 20
660.539568
 30
111.193245
 70
    64
  0
VERTEX
  8
I-STEEL
  5
E91
 10
694.98018
 20
665.539568
 30
117.830197
 70
    64
  0
VERTEX
  8
I-STEEL
  5
E92
 10
694.98018
 20
663.039568
 30
117.830197
 70
    64
  0
VERTEX
  8
I-STEEL
  5
E93
 10
694.98018
 20
660.539568
 30
117.830197
 70
    64
  0
VERTEX
  8
I-STEEL
  5
E94
 10
703.343228
 20
665.539568
 30
122.091383
 70
    64
  0
VERTEX
  8
I-STEEL
  5
E95
 10
703.343228
 20
663.039568
 30
122.091383
 70
    64
  0
VERTEX
  8
I-STEEL
  5
E96
 10
703.343228
 20
660.539568
 30
122.091383
 70
    64
  0
SEQEND
  8
I-STEEL
  5
E97
  0
POLYLINE
  8
I-STEEL
  5
E9C
 66
     1
 10
0.0
 20
0.0
 30
0.0
 70
    16
 71
     2
 72
     9
  0
VERTEX
  8
I-STEEL
  5
E9D
 10
792.613738
 20
645.539568
 30
93.559687
 70
    64
  0
VERTEX
  8
I-STEEL
  5
E9E
 10
792.613738
 20
645.158966
 30
95.473104
 70
    64
  0
VERTEX
  8
I-STEEL
  5
E9F
 10
792.613738
 20
644.075102
 30
97.095221
 70
    64
  0
VERTEX
  8
I-STEEL
  5
EA0
 10
792.613738
 20
642.452985
 30
98.179085
 70
    64
  0
VERTEX
  8
I-STEEL
  5
EA1
 10
792.613738
 20
640.539568
 30
98.559687
 70
    64
  0
VERTEX
  8
I-STEEL
  5
EA2
 10
792.613738
 20
638.626151
 30
98.179085
 70
    64
  0
VERTEX
  8
I-STEEL
  5
EA3
 10
792.613738
 20
637.004034
 30
97.095221
 70
    64
  0
VERTEX
  8
I-STEEL
  5
EA4
 10
792.613738
 20
635.92017
 30
95.473104
 70
    64
  0
VERTEX
  8
I-STEEL
  5
EA5
 10
792.613738
 20
635.539568
 30
93.559687
 70
    64
  0
VERTEX
  8
I-STEEL
  5
EA6
 10
792.613738
 20
645.539568
 30
93.559687
 70
    64
  0
VERTEX
  8
I-STEEL
  5
EA7
 10
792.613738
 20
644.289568
 30
93.559687
 70
    64
  0
VERTEX
  8
I-STEEL
  5
EA8
 10
792.613738
 20
643.039568
 30
93.559687
 70
    64
  0
VERTEX
  8
I-STEEL
  5
EA9
 10
792.613738
 20
641.789568
 30
93.559687
 70
    64
  0
VERTEX
  8
I-STEEL
  5
EAA
 10
792.613738
 20
640.539568
 30
93.559687
 70
    64
  0
VERTEX
  8
I-STEEL
  5
EAB
 10
792.613738
 20
639.289568
 30
93.559687
 70
    64
  0
VERTEX
  8
I-STEEL
  5
EAC
 10
792.613738
 20
638.039568
 30
93.559687
 70
    64
  0
VERTEX
  8
I-STEEL
  5
EAD
 10
792.613738
 20
636.789568
 30
93.559687
 70
    64
  0
VERTEX
  8
I-STEEL
  5
EAE
 10
792.613738
 20
635.539568
 30
93.559687
 70
    64
  0
SEQEND
  8
I-STEEL
  5
EAF
  0
POLYLINE
  8
I-STEEL
  5
EB0
 66
     1
 10
0.0
 20
0.0
 30
0.0
 70
    16
 71
     2
 72
     9
  0
VERTEX
  8
I-STEEL
  5
EB1
 10
792.613738
 20
645.539568
 30
93.559687
 70
    64
  0
VERTEX
  8
I-STEEL
  5
EB2
 10
792.613738
 20
645.158966
 30
91.64627
 70
    64
  0
VERTEX
  8
I-STEEL
  5
EB3
 10
792.613738
 20
644.075102
 30
90.024153
 70
    64
  0
VERTEX
  8
I-STEEL
  5
EB4
 10
792.613738
 20
642.452985
 30
88.94029
 70
    64
  0
VERTEX
  8
I-STEEL
  5
EB5
 10
792.613738
 20
640.539568
 30
88.559687
 70
    64
  0
VERTEX
  8
I-STEEL
  5
EB6
 10
792.613738
 20
638.626151
 30
88.94029
 70
    64
  0
VERTEX
  8
I-STEEL
  5
EB7
 10
792.613738
 20
637.004034
 30
90.024153
 70
    64
  0
VERTEX
  8
I-STEEL
  5
EB8
 10
792.613738
 20
635.92017
 30
91.64627
 70
    64
  0
VERTEX
  8
I-STEEL
  5
EB9
 10
792.613738
 20
635.539568
 30
93.559687
 70
    64
  0
VERTEX
  8
I-STEEL
  5
EBA
 10
792.613738
 20
645.539568
 30
93.559687
 70
    64
  0
VERTEX
  8
I-STEEL
  5
EBB
 10
792.613738
 20
644.289568
 30
93.559687
 70
    64
  0
VERTEX
  8
I-STEEL
  5
EBC
 10
792.613738
 20
643.039568
 30
93.559687
 70
    64
  0
VERTEX
  8
I-STEEL
  5
EBD
 10
792.613738
 20
641.789568
 30
93.559687
 70
    64
  0
VERTEX
  8
I-STEEL
  5
EBE
 10
792.613738
 20
640.539568
 30
93.559687
 70
    64
  0
VERTEX
  8
I-STEEL
  5
EBF
 10
792.613738
 20
639.289568
 30
93.559687
 70
    64
  0
VERTEX
  8
I-STEEL
  5
EC0
 10
792.613738
 20
638.039568
 30
93.559687
 70
    64
  0
VERTEX
  8
I-STEEL
  5
EC1
 10
792.613738
 20
636.789568
 30
93.559687
 70
    64
  0
VERTEX
  8
I-STEEL
  5
EC2
 10
792.613738
 20
635.539568
 30
93.559687
 70
    64
  0
SEQEND
  8
I-STEEL
  5
EC3
  0
ENDSEC
  0
EOF
